Boyce Avenue

home > Boyce Avenue

Mirrors Tab

Boyce Avenue

Difficulty: ExpertExpert

by andrsouza

tuner correct add songbook print version text version save to e-mail
chordsukulelecavacokeyboardtabbassdrumsharmonicsflute Guitar Pro
chords

Mirrors

	  

Intro: 

   D           A           Em 
e|-------2-----------0-----------------------------| 
B|-----3-----------2-------------3-----------------| 
G|---2-----------2-------------4-------------------| 
D|-0-------------------------5---------------------| 
A|-------------0-----------------------------------| 
E|-------------------------0-----------------------| 

   D           A           Em                  G 
e|-------2-----------------------------------------| 
B|-----3-------------5-----------3-------------0---| 
G|---2-------------6-----------4---------------0---| 
D|-0-------------7-----------5---------------------| 
A|-------------0-----------------------------------| 
E|-------------------------0-------------------3---| 


Verse(x2): 

   Bm      *   A           Em          G 
e|-------2-x---------0-x-----------x-----------x---| 
B|-----3---x-------2---x---------0-x---------0-x---| 
G|---4-----x-----2-----x-------0---x-------0---x---| 
D|---------x-----------x-----2-----x-----0-----x---| 
A|-2-------x---0-------x-----------x-----------x---| 
E|---------x-----------x---0-------x---3-------x---| 

   Bm          A           Em                  G 
e|-------2-x---------0-x-----------x---------------| 
B|-----3---x-------2---x---------0-x-----------0---| 
G|---4-----x-----2-----x-------0---x-----------0---| 
D|---------x-----------x-----2-----x---------------| 
A|-2-------x---0-------x-----------x---------------| 
E|---------x-----------x---0-------x-----------3---| 

*NOTE - Hit strings with your palm to mute them 


Pre-chorus(let notes ring): 

   Bm          A           Em          G 
e|-------2-----------0-----------------------------| 
B|-----3-----------2-------------0-----------0-----| 
G|---4-----------2-------------0-----------0-------| 
D|---------------------------2-----------0---------| 
A|-2-----------0-----------------------------------| 
E|-------------------------0-----------3-----------| 

   Bm          A           Em          G 
e|-------2-----------0-----------------------------| 
B|-----3-----------2-------------0-----------------| 
G|---4-----------2-------------0-------------------| 
D|---------------------------2---------------------| 
A|-2-----------0-------------------------------10\-| 
E|-------------------------0-----------------------| 


Chorus(strum): 
    
   D           A           G 
e|-2-----------0-----------3-----------------------| 
B|-3-----------2-----------3-----------------------| 
G|-2-----------2-----------0-----------------------| x2 
D|-0-----------2-----------0-----------------------| 
A|-------------0-----------x-----------------------| 
E|-------------------------3-----------------------| 

   D           A           Em          Bm 
e|-2-----------0-----------0-----------2-----------| 
B|-3-----------2-----------0-----------3-----------| 
G|-2-----------2-----------0-----------4-----------| 
D|-0-----------2-----------2-----------4-----------| 
A|-------------0-----------2-----------2-----------| 
E|-------------------------0-----------------------| 

   D           A           G 
e|-2-----------0-----------3-----------------------| 
B|-3-----------2-----------3-----------------------| 
G|-2-----------2-----------0-----------------------| x3 
D|-0-----------2-----------0-----------------------| 
A|-------------0-----------x-----------------------| 
E|-------------------------3-----------------------| 

   D           A           Em          Bm 
e|-2-----------0-----------0-----------2-----------| 
B|-3-----------2-----------0-----------3-----------| 
G|-2-----------2-----------0-----------4-----------| 
D|-0-----------2-----------2-----------4-----------| 
A|-------------0-----------2-----------2-----------| 
E|-------------------------0-----------------------| 

   D           A           G 
e|-2-----------0-----------3-----------------------| 
B|-3-----------2-----------3-----------------------| 
G|-2-----------2-----------0-----------------------| 
D|-0-----------2-----------0-----------------------| 
A|-------------0-----------x-----------------------| 
E|-------------------------3-----------------------| 


Verse(x2) 

Pre-chorus(no bass slide in the end this time): 

Chorus 

Bridge: 

   Em                      Bm 
e|-0-----------------------2-----------------------| 
B|-0-----------------------3-----------------------| 
G|-0-----------------------4-----------------------| 
D|-2-----------------------4-----------------------| 
A|-2-----------------------2-----------------------| 
E|-0-----------------------------------------------| 

   Em                      Bm          A 
e|-0-----------------------2-----------0-----------| 
B|-0-----------------------3-----------2-----------| 
G|-0-----------------------4-----------2-----------| 
D|-2-----------------------4-----------2-----------| 
A|-2-----------------------2-----------0-----------| 
E|-0-----------------------------------------------| 

   Em                      Bm 
e|-0-----------------------2-----------------------| 
B|-0-----------------------3-----------------------| 
G|-0-----------------------4-----------------------| 
D|-2-----------------------4-----------------------| 
A|-2-----------------------2-----------------------| 
E|-0-----------------------------------------------| 

   G                       A 
e|-3-----------------------0-----------------------| 
B|-3-----------------------2-----------------------| 
G|-0-----------------------2-----------------------| 
D|-0-----------------------2-----------------------| 
A|-x-----------------------0-----------------------| 
E|-3-----------------------------------------------| 


Chorus: 

1st half - just singing and clapping 

2nd half(x2): 

e|-------7-7-7-------------7-7-7-------------------------------------------| 
B|-------------10-10-------------10-10-------10-10-10-8-8-------7-7-7-7-7--| 
G|-7-7-7-------------6-6-6-------------------------------------------------| 
D|-------------------------------------9-9-9--------------9-9-9------------| 
A|-------------------------------------------------------------------------| 
E|-------------------------------------------------------------------------| 
                                                          ________________  ___________ 
                                                         | 1st ending      | 2nd ending 
e|-------7-7-7-------------7-7-7-------------------------------------------|-----------| 
B|-------------10-10-------------10-10-------10-10-10-8-8-------7-7-7-8-10-|-----------| 
G|-7-7-7-------------6-6-6-------------------------------------------------|-----------| 
D|-------------------------------------9-9-9--------------9-9-9------------|-9-9-9-9---| 
A|-------------------------------------------------------------------------|-----------| 
E|-------------------------------------------------------------------------|-----------| 

Then start with regular chorus strumming 'till the end. 

   D           A           G 
e|-2-----------0-----------3-----------------------| 
B|-3-----------2-----------3-----------------------| 
G|-2-----------2-----------0-----------------------| x2 
D|-0-----------2-----------0-----------------------| 
A|-------------0-----------x-----------------------| 
E|-------------------------3-----------------------| 

   D           A           Em          Bm 
e|-2-----------0-----------0-----------2-----------| 
B|-3-----------2-----------0-----------3-----------| 
G|-2-----------2-----------0-----------4-----------| 
D|-0-----------2-----------2-----------4-----------| 
A|-------------0-----------2-----------2-----------| 
E|-------------------------0-----------------------| 

   D           A           G 
e|-2-----------0-----------3-----------------------| 
B|-3-----------2-----------3-----------------------| 
G|-2-----------2-----------0-----------------------| 
D|-0-----------2-----------0-----------------------| 
A|-------------0-----------x-----------------------| 
E|-------------------------3-----------------------| 

 
	  

there isn't a video lesson for this song

request
Full key step upFull key step up
Half key step upHalf key step up
Half key step downHalf key step down
Full key step downFull key step down
Search
auto scroll beats size up size down change color hide chords drawings
tab show chords e-chords YouTube Clip e-chords hide all tabs e-chords go to top tab