Boyce Avenue

home > Boyce Aven... > chords

I Want It That Way Tab

Boyce Avenue

Difficulty: EasyEasy

by tpaes22

tuner correct add songbook print version text version rtf version e-mail
chordsukulelecavacokeyboardtabbassdrumsharmonicsflute Guitar Pro
chords

I Want It That Way

	  
Intro

Violão 1: 
E|-----------------------------------| 
B|-----0-----1p0-------0-------3-----| 
G|-------0-------0-----------0---0---|(2x) 
D|---2-----2---------2-----0---------| 
A|-----------------3-----------------| 
E|-0---------------------3-----------| 


{PARTE 1} 

Violão 1: 
E|-----------------------------------| 
B|-----0-----1p0-------0-------3-----| 
G|-------0-------0-----------0---0---|(3x) 
D|---2-----2---------2-----0---------| 
A|-----------------3-----------------| 
E|-0---------------------3-----------| 
You are, my fire 

The one, desire, 

Believe, when I say, 

I want it that way 


(Violão 1 continua o dedilhado inicial.) 
Violão 2: 
E|------------------------------------------| 
B|-5-8-7-----5-8-7-----5-5-7-8--------------| 
G|-------7-4-------7-4---------7------------| 
D|------------------------------------------| 
A|------------------------------------------| 
E|------------------------------------------| 
But we, are two worlds apart, 

Can't reach to, your heart, 

When you say, 


------------3-7-5---3-3---------------------| 
-----3h5-5----------------------------------| 
--------------------------------------------| 
--------------------------------------------| 
--------------------------------------------| 
--------------------------------------------| 
That I want it that way 


{REFRÃO} 

(Violão 1 - Ritmo C/D/Em) 
Violão 2: 
E|-10---10---10---10---5---5-7--------------| 
B|----8----8----8----8---7-----5--8/7--5----| 
G|------------------------------------------| (3x) 
D|------------------------------------------| 
A|------------------------------------------| 
E|------------------------------------------| 
Tell me why, 

(Ain't nothin' but a heart ache) 

Tell me why, 

(Ain't nothin' but a mist-ake) 

Tell me why, 

I never wanna hear you say 


  ------------------------------------------| 
  -5-8-12-10-8-8----------------------------| 
  ------------------------------------------| (Final do refrão) 
  ------------------------------------------| 
  ------------------------------------------| 
  ------------------------------------------| 
I want it that way.... 



{PARTE 2} 

(Violao 1 - Dedilhado inicial) 
(Violão 2 - Em/C/G) 

Am I your fire 

Your one desire 

Yes I know it's too late 

But I want it that way 



{REFRÃO} 


{PARTE 3} 
PONTE - Violão 1: 
E|-------0-------------0-------------0-------------0-------| 
B|-----0---0---------0---0-------------0-------------1-----| 
G|---0-------0-----0-------0-------0-----0-------2-----2---| 
D|-2-----------2-0-----------0---2---------2---2---------2-| 
A|-----------------------------3-------------0-------------| 
E|---------------------------------------------------------| 

-------0-------------0-------------0-------3-2-| 
-----0---0---------0---0-------------0-----3-3-| 
---0-------0-----0-------0-------0-----0---2-2-| 
-2-----------2-0-----------0---2---------2-0-0-| 
-----------------------------3-------------0-0-| 
-----------------------------------------------| 
Now i can see that we've fallen apart 

From the way that it used to be, yeah 

No matter the distance 

I want you to know that 

Deep down inside of me 

You are my fire 

The one desire 

You are, 

         C9 
E|------------------------------------------| 
B|--------3---------------------------------| 
G|------0-----------------------------------| 
D|----2-------------------------------------| 
A|--3---------------------------------------| 
E|------------------------------------------| 
you are, you are, you are 


E|------------------------------------------| 
B|------------------------------------------| 
G|----7-9-12--12/16--14---------------------| 
D|--7---------------------------------------| 
A|------------------------------------------| 
E|------------------------------------------| 
Don't wanna hear you say... 


{SOLO - MUDA O TOM PARA B MAIOR} 

(Violão 1 - Base D5/E/A) 
Violão 2: 

E|-------------------------------------------------------------| 
B|---------2^3-3/5-5-----0---------2^3^2^0---5-5---10-9---9-10-| 
G|-----2^4-----------2-4---2-4-4/6---------2-----7------9------| 
D|-2^4---------------------------------------------------------| 
A|-------------------------------------------------------------| 
E|-------------------------------------------------------------| 

-----------9-10-10/12-12~----------------------------------------x-x-x-x-| 
------9-10----------------/10-12-10-12-14-10/9-7~-2~-5~-9---9-10-x-x-x-x-| 
-9-11-----------------------------------------------------9------x-x-x-x-| 
-----------------------------------------------------------------x-x-x-x-| 
-----------------------------------------------------------------x-x-x-x-| 
-----------------------------------------------------------------x-x-x-x-| 




{REFRÃO - JÁ COM B MAIOR} 

(Violão 1 - Base D5/E/A) 
Violão 2: 

E|-12---12---12---12---7---7-9---------------| 
B|----10----10----10----9---7-----7--10/9--7-| 
G|-------------------------------------------| 
D|-------------------------------------------| 
A|-------------------------------------------| 
E|-------------------------------------------| 
Tell me why, 

Ain't nothin' but a heart ache, 

Tell me why, 

Ain't nothin' but a mist-ake, 

Tell me why, 

I never wanna hear you say, 

I want it that way 

Tell me why, 

Ain't nothin' but a mist-ake, 

Tell me why, 

I never wanna hear you say 

(OPCIONAL, PODE TERMINAR COM O RITMO DA PARTE 2) 
E|------------------------------------------| 
B|--7-10-14-12-10-10------------------------| 
G|------------------------------------------| 
D|------------------------------------------| 
A|------------------------------------------| 
E|------------------------------------------| 
I want it that way 


E|---------0-0---| 
B|---------0-2---| 
G|-------2-1-2---| 
D|-----4---2-2---| 
A|---4-----2-0---| 
E|-2-------0-----| 
Cause I want it that way 
	  

Request the video "I Want It That Way"  -  Send "I Want It That Way" Ringtone to your Cell

there isn't a video lesson for this song

request
Full key step upFull key step up
Half key step upHalf key step up
Half key step downHalf key step down
Full key step downFull key step down
Search
auto scroll beats size up size down change color hide chords drawings
tab show chords e-chords YouTube Clip e-chords hide all tabs e-chords go to top tab