Boyce Avenue

home > Boyce Aven... > chords

Fast Car Tab

Boyce Avenue

Difficulty: BeginnerBeginner

by educastilho

tuner correct add songbook print version text version rtf version e-mail
chordsukulelecavacokeyboardtabbassdrumsharmonicsflute Guitar Pro
chords

Fast Car

	  
Violão 1: 

Intro/Verso: 
E|---------------------------| 
B|-8--8-7--7----0h1-0-3--3-/-| 
G|-0----0----0--0-----0----0-| 
D|---------------------------| 
A|-7----5-------3------------| 
E|--------------------3------| 

Pré-Refrão: 
E|-0--0-0--0-0-0-3--3-3--3-3-0-0--0-0--0-0-0-2--2-0--2-2-0-| 
B|-1--1-1--1-1-0-3--3-3--3-3-0-0--0-0--0-0-0-3--3-3--3-3-0-| 
G|-0--0-0--0-0-0-0--0-0--0-0-0-0--0-0--0-0-0-2--2-0--2-2-0-| 
D|-2--2-2--2-2-0-0--0-0--0-0-0-2--2-0--2-2-0-0--0-0--0-0-0-| 
A|-3--3-3--3-3-0-2--2-0--2-2-0-2--2-2--2-2-0-0--0-0--0-0-0-| 
E|-x--x-x--x-x-0-3--3-3--3-3-0-0--0-0--0-0-0-x--x-x--x-x-0-| 

Refrão: 
E|-0----0----2---0-2-2----0----0----2---0-2-2--0--2-| 
B|-1----0----3---3-3-3----1----0----3---3-3-3--1--3-| 
G|-0----0----2---0-2-2----0----0----2---0-2-2--0--2-| 
D|-2----2----0---0-0-0----2----2----0---0-0-0--2--0-| 
A|-3----2----0------------3----2----0----------3--0-| 
E|-x----0----x------------x----0----x----------x--x-| 

Virada: 
E|--------------------------------| 
B|-8---8-7---7-5-0h1p0-1/3--3-----| 
G|---0-----0--------------------0-| 
D|--------------------------------| 
A|--------------------------------| 
E|--------------------------------| 

Variação da Introdução: 
E|--------------------------------| 
B|-8-/-10-8-7--8-7--0h1-0-3--3-/-| 
G|-0--------0--------0-----0----0-| 
D|----------0---------------------| 
A|-7-----------------3------------| 
E|-------------------------3------| 

Violão 2: 
Intro/Verso: 
E|---------------------------| 
B|-8--8-7--7----0h1-0-3--3-/-| 
G|-0----0----0--0-----0----0-| 
D|---------------------------| 
A|-7----5-------3------------| 
E|--------------------3------| 

Pré-Refrão: 
E|-0---3---0---2-| 
B|-1---3---0---3-| 
G|-0---0---0---2-| 
D|-2---0---2---0-| 
A|-3---2---2---0-| 
E|-----3---0-----| 

Refrão: 
E|-0----0----2---2-2-2----0----0----2---2-2-2--0--2-| 
B|-1----0----3---3-3-3----1----0----3---3-3-3--1--3-| 
G|-0----0----2---2-2-2----0----0----2---2-2-2--0--2-| 
D|-2----2----0---0-0-0----2----2----0---0-0-0--2--0-| 
A|-3----2----0------------3----2----0----------3--0-| 
E|-x----0----x------------x----0----x----------x--x-| 
	  

Request the video "Fast Car"  -  Send "Fast Car" Ringtone to your Cell

there isn't a video lesson for this song

request
e-chords
Search
auto scroll beats size up size down change color hide chords drawings
tab show chords e-chords YouTube Clip e-chords hide all tabs e-chords go to top tab