Bon Jovi

home > Bon Jovi > chords

I'll be there for you Tab

Bon Jovi

Difficulty: ExpertExpert

by junior_Bilu

tuner correct add songbook print version text version rtf version e-mail
chordsukulelecavacokeyboardtabbassdrumsharmonicsflute Guitar Pro
chords

I'll be there for you

Year: 1994 - Album: Cross Road

(Bon Jovi / Sambora)

	  e|-------------------------------------------------------------| 
B|-----7------------------------------7------------------------| 
G|-----9b------9p-7---7~----7~-----x--9b------9p-7---7~--7-----| 
D|------------------9-----9------------------------9-------9~--| 
A|-------------------------------------------------------------| 
E|-------------------------------------------------------------| 

e|--------------------------------------------------| 
B|--------------------------------------------------| 
G|--------------------------------------------------| 
D|---------12-12-x--------12-12-x--------12-12-x-12-| 
A|--12h-14---------12h-14---------12h-14------------| 
E|--------------------------------------------------| 

e|----------------------------------------------| 
B|----------------------------------------------| 
G|-------------11-11-----------------11~--------| 
D|-----12-14b----------14br--12-----------14-12-| 
A|--14--------------------------14--------------| 
E|----------------------------------------------| 

e|----------------------------------------------| 
B|----------------------------------------------| 
G|----------------------------------------------| 
D|----------------------------------------------| 
A|--7h-9p-7-------7h-9p-7h-9-10--10-9-7-L-------| 
E|----------10~---------------------------------| 

e|----------------------------------------------| 
B|----------------------------------------------| 
G|----------------------------------------------| 
D|----------------------------------------------| 
A|--7h-9p-7-------7h-9p-7h-9-10--10-9-7-L-------| 
E|----------10~---------------------------------| 

e|---------------------7------------------------| 
B|--------------10b------10p-7------------------| 
G|------------7----------------10p-9p-7h-9------| 
D|----------------------------------------------| 
A|----------------------------------------------| 
E|----------------------------------------------| 

e|----------------------------------------------7--------------| 
B|--10p-7--------------------------------10b------10p-7--------| 
G|--------10p-9p-7h-9--10p-9p-7h-9-9b--7----------------10p-9h-| 
A|-------------------------------------------------------------| 
D|-------------------------------------------------------------| 
E|-------------------------------------------------------------| 
       
e|------------------------------| 
B|------------------------------| 
G|--7~--------------------------| 
D|------------------------------| 
A|------------------------------| 
E|------------------------------| 


Olha gente toca guitarra violão ou qualquer instrumento que seja 
é bom demais... 

Sábio ñ é aquele que toca muito e sim o que compartilha o que aprende... 
Palavras de Junior Nunes... 

Qualquer coisa estou sempre oline para ajuda 
O meu msn é junior_bilu@hotmail.com 
Morro na cidade de Serraria - PB 
Venha me visitar 
	  

Request the video "I'll be there for you"  -  Send "I'll be there for you" Ringtone to your Cell

there isn't a video lesson for this song

request
Search
auto scroll beats size up size down change color hide chords drawings
tab show chords e-chords YouTube Clip e-chords hide all tabs e-chords go to top tab