Blues Songs

home > Blues Song... > chords

A7 Blues Riff Tab

Blues Songs

Difficulty: BeginnerBeginner

by weezer pillows

tuner correct add songbook print version text version rtf version e-mail
chordsukulelecavacokeyboardtabbassdrumsharmonicsflute Guitar Pro
chords

A7 Blues Riff

	  STANDARD TUNING 
 
|--3-3--3-3--3-3--3-3--| 
|--2-2--2-2--2-2--2-2--| 
|--2-2--2-2--2-2--2-2--| 
|--2-2--2-2--2-2--2-2--| 
|----------------------| 
|----------------------| 
 
|--8-8--8-8--3-3--3-3--| 
|--7-7--7-7--2-2--2-2--| 
|--7-7--7-7--2-2--2-2--| 
|--7-7--7-7--2-2--2-2--| 
|----------------------| 
|----------------------| 
 
|-10-10--8-8--3-3--3-3-| 
|--9--9--7-7--2-2--2-2-| 
|--9--9--7-7--2-2--2-2-| 
|--9--9--7-7--2-2--2-2-| 
|----------------------| 
|----------------------| 
 
 ~enjoy~ 
 

	  

Request the video "A7 Blues Riff"  -  Send "A7 Blues Riff" Ringtone to your Cell

there isn't a video lesson for this song

request
Search
auto scroll beats size up size down change color hide chords drawings
tab show chords e-chords YouTube Clip e-chords hide all tabs e-chords go to top tab