Bluegrass

home > Bluegrass > chords

Whiskey Before Breakfast Tab

Bluegrass

Difficulty: BeginnerBeginner

tuner correct add songbook print version text version rtf version e-mail
chordsukulelecavacokeyboardtabbassdrumsharmonicsflute Guitar Pro
chords

Whiskey Before Breakfast

	  Play with a Capo on the 3rd fret 
 
This is a fairly simple version of the bluegrass tune and  
isbased on an old Norman Blake version but he never  
playsanything the same way twice anyway. 
 
Play part A twice and then Part B twice. 
 
Part A 
E-----------0----------------------------------------------| 
B-----------1----------------------------------------------| 
G---------0-0-0h2-0-------------2---2---0---0--------------| 
D---0-2-3-----------2-0---0-2-3---3---2---2---------0h2-0--| 
A-3---------------------3---------------------3/5-5-------2| 
E----------------------------------------------------------| 
 
E-------------0-----------------------------------------0-0| 
B-------------1---------------------0-1-----------------1--| 
G---------0-0-0-2-0-------------0-2-----2-0-------------0--| 
D---0-2-3-----------2-0---0-2-3-------------3-2---0--------| 
A-3---------------------3-----------------------3---2-3----| 
E----------------------------------------------------------| 
 
Part B 
E---------0-1-3-0-1---0-------1-0-------------------3-----0| 
B-----0-1-----------3---1-3-0-----1h3-0-------0-----0-1-3--| 
G-0-2-----------------------------------2-0-2---2-0-0------| 
D----------------------------------------------------------| 
A----------------------------------------------------------| 
E----------------------------------------------------------| 
 
E----------------------------------------------------------| 
B-1-0-1-3-0---------------------0-1------------------------| 
G-----------2-0---2-0-------0--2-----2-0-------------------| 
D---------------3-----3-2-3-------------3-2---0------------| 
A-------------------------------------------3---2-3--------| 
E----------------------------------------------------------| 
	  

Request the video "Whiskey Before Breakfast"  -  Send "Whiskey Before Breakfast" Ringtone to your Cell

there isn't a video lesson for this song

request
Search
auto scroll beats size up size down change color hide chords drawings
tab show chords e-chords YouTube Clip e-chords hide all tabs e-chords go to top tab