Blackberry Smoke

home > Blackberry... > chords

Like I Am Tab

Blackberry Smoke

Difficulty: BeginnerBeginner

by jov-correa

tuner correct add songbook print version text version rtf version e-mail
chordsukulelecavacokeyboardtabbassdrumsharmonicsflute Guitar Pro
chords

Like I Am

	  

the main riff 
e|---------------------------------------------------| 
B|---------3----------3----------3----3-3------------| 
G|-----2---2------2---2------2---2----2-2----2-------| 
D|-----2---0------2---0------2---0----0-0----2-------| 
A|--b3-0-------b3-0-------b3-0------------b3-0-------| 
E|---------------------------------------------------| 

the pre-chorus 
e|-----------0---0-------------------| 
B|---3--3----0---0---3-3-------------| 
G|---2--2--------0---2-2-------------| 
D|---0--0--2---2-2---0-0-2-2-2-2-----| 
A|---------2---2---------2-2-2-2-----| 
E|---------0---0---------0-0-0-0-----| 

before you jump... 
e|--------0-0------------------------0-0---------------------| 
B|--------0-0--3-3-3-3-3-3-3-3-------0-0--3-3-3-3-3-3-3-3----| 
G|--------0-0--2-2-4-2-2-2-4-2-------0-0--2-2-4-2-2-2-4-2----| 
D|---4-4--2-2--0-0-0-0-0-0-0-0--4-4--2-2--0-0-0-0-0-0-0-0----| 
A|---4-4--2-2-------------------4-4--2-2---------------------| 
E|---2-2--0-0-------------------2-2--0-0---------------------| 

chorus 
e|---3-3------------------------0---------------------0----------| 
B|---3-3--3-3-------------------0--3-3----------------0-3-3------| 
G|---0-0--2-2--2-2--------------0--2-2--2-------------0-2-2-2----| 
D|---0-0--0-0--2-2------4-4--2-----0-0--2------4-4--2---0-0-2----| 
A|-------------0-0------4-4--2----------0------4-4--2-------0----| 
E|---3-3------------4-3-2-2--0-------------4-3-2-2--0------------| 

bridge/solo 
e|------------------0--------------------0--------| 
B|------------------0--------------------0--------| 
G|---4-4-4-4--------0-----4-4-4-4--------0--------| 
D|---4-4-4-4--2-2-2---2---4-4-4-4--2-2-2---2------| 
A|---2-2-2-2--2-2-2---2---2-2-2-2--2-2-2---2------| 
E|------------0-0-0---0------------0-0-0---0------| 
	  

Request the video "Like I Am"  -  Send "Like I Am" Ringtone to your Cell

there isn't a video lesson for this song

request
Search
auto scroll beats size up size down change color hide chords drawings
tab show chords e-chords YouTube Clip e-chords hide all tabs e-chords go to top tab