Black Label Society

home > Black Labe... > chords

Ain't No Sunshine Tab

Black Label Society

Difficulty: ExpertExpert

by marcnagel

tuner correct add songbook print version text version rtf version e-mail
chordsukulelecavacokeyboardtabbassdrumsharmonicsflute Guitar Pro
chords

Ain't No Sunshine

	  Intro: 
 
D|---------------------------------------| 
A|---------------------------------------| 
F|-----------4---------------------------| 
C|------4---------4---------4---------7--| 
G|-2-------------------------------------| 
D|---------------------2-------2/5-------| 
 

Verso 1: 
Ain't no sunshine when... 
 
D|---------------------------------------| 
A|---------------------------------------| 
F|-----------4---------------------------| 
C|------4---------4---------4---------7--| 
G|-2-------------------------------------| 
D|---------------------2-------2/5-------| 
 

And she's always gone... 
D|--0--   d|--0-- 
A|--0--   A|--0-- 
F|--9--   F|--7-- 
C|--9--   C|--7-- 
G|--7--   G|--5-- 
D|-----   D|----- 

Verso 2: 
Wonder this time ... 
 
D|---------------------------------------| 
A|---------------------------------------| 
F|-----------4---------------------------| 
C|------4---------4---------4---------7--| 
G|-2-------------------------------------| 
D|---------------------2-------2/5-------| 
 

And this house just ain't no home... 
D|--0--   d|--0-- 
A|--0--   A|--0-- 
F|--9--   F|--7-- 
C|--9--   C|--7-- 
G|--7--   G|--5-- 
D|-----   D|----- 

Intro: 

Ain't no sunshine when she's gone, gone away... 
D|--0--   d|--2-- 
A|--0--   A|--3-- 
F|--0--   F|--4-- 
C|--2--   C|--4-- 
G|--2--   G|--2-- 
D|--0--   D|----- 

And this house just ain't no home... 
D|--0--   d|--0-- 
A|--0--   A|--0-- 
F|--9--   F|--7-- 
C|--9--   C|--7-- 
G|--7--   G|--5-- 
D|-----   D|----- 

Intro: 

I know... 
D|--2-- 
A|--3-- 
F|--4-- 
C|--4-- 
G|--2-- 
D|----- 

Gotta leave the young thing alone, there ain't no sunshine when she's gone! 

Verso 3: 
Ain't no sunshine when... 
 
D|---------------------------------------| 
A|---------------------------------------| 
F|-----------4---------------------------| 
C|------4---------4---------4---------7--| 
G|-2-------------------------------------| 
D|---------------------2-------2/5-------| 
 

And this house just ain't no home... 
D|--0--   d|--0-- 
A|--0--   A|--0-- 
F|--9--   F|--7-- 
C|--9--   C|--7-- 
G|--7--   G|--5-- 
D|-----   D|----- 

Anytime she goes... 
 
D|---------------------------------------| 
A|---------------------------------------| 
F|-----------4---------------------------| 
C|------4---------4---------4---------7--| 
G|-2-------------------------------------| 
D|---------------------2-------2/5-------| 
 

D|--2-- 
A|--3-- 
F|--4-- 
C|--4-- 
G|--2-- 
D|----- 
	  

Request the video "Ain't No Sunshine"  -  Send "Ain't No Sunshine" Ringtone to your Cell

there isn't a video lesson for this song

request
Search
auto scroll beats size up size down change color hide chords drawings
tab show chords e-chords YouTube Clip e-chords hide all tabs e-chords go to top tab