Billy Joel

home > Billy Joel > chords

You May be Right Tab

Billy Joel

Difficulty: nolevelnolevel

by ojkrem

tuner correct add songbook print version text version rtf version e-mail
chordsukulelecavacokeyboardtabbassdrumsharmonicsflute Guitar Pro
chords

You May be Right

Year: 1997 - Album: Billy Joel Greatest Hits: Vol. 1-2 (2CD)

(Billy Joel)

	  Intro: -----------------------------------------------| 
       -8-7-----8-7-----8-7-----8-7-----8-7-----8-7---| 
       -----7-8-----7-8-----7-8-----7-8-----7-8-----7-| 
       -----------------------------------------------| 
       -----------------------------------------------| 
       -----------------------------------------------| 

Chords used in song: 
  A      E     Bm      G      D      F 
--0--  --0--  --2--  --3--  --2--  --1-- 
--2--  --0--  --3--  --0--  --3--  --1-- 
--2--  --1--  --4--  --0--  --2--  --1-- 
--2--  --2--  --4--  --0--  --0--  --3-- 
--0--  --2--  --2--  --2--  -----  --3-- 
--0--  --0--  -----  --3--  -----  --1-- 

Verses: 

A 
Friday night I crashed your party 

Saturday I said I'm sorry 
                                   E 
Sunday came and trashed me out again 
      Bm 
I was only having fun 
       G 
Wasn't hurting anyone 
       E                               A 
And we all enjoyed the weekend for a change 

A 
I've been stranded in the combat zone 

I walked through Bedford Stuy alone 
                                  E 
Even rode my motorcycle in the rain 
        Bm 
And you told me not to drive 
      G 
But I made it home alive 
       E                                A 
So you said that only proves that I'm insane 

Chorus: 
You may be right 
(Played after this line:) 
------------------| 
------------------| 
------------------| 
-----------2------| 
-------2-4---4-2--| 
-0-3-4---------0--| 

I may be crazy 
(Played after this line:) 
------------------| 
------------------| 
-----------2------| 
-------2-4---4-2--| 
-0-3-4---------0--| 
------------------| 

       E             D              F 
But it just may be a lunatic you're looking for 

Turn out the lights 
(Played after this line:) 
------------------| 
------------------| 
------------------| 
-----------2------| 
-------2-4---4-2--| 
-0-3-4---------0--| 

Don't try to save me 
(Played after this line:) 
------------------| 
------------------| 
-----------2------| 
-------2-4---4-2--| 
-0-3-4---------0--| 
------------------| 

           D               E                   A 
You may be wrong for all I know but you may be right 

Verses: 
A 
Remember how I found you there 

Alone in your electric chair 
                                      E 
I told you dirty jokes until you smiled 
         Bm 
You were lonely for a man 
       G 
I said take me as I am 
          E                             A 
Cause you might enjoy some madness for awhile 

A 
Now think of all the years you've tried to 

Find someone to satisfy you 
                            E 
I might be as crazy as they say 
       Bm 
If I'm crazy then it's true 
          G 
That it's all because of you 
        E                          A 
And you wouldn't want me any other way 


Chorus: 

You may be right 
(Played after this line:) 
------------------| 
------------------| 
------------------| 
-----------2------| 
-------2-4---4-2--| 
-0-3-4---------0--| 

I may be crazy 
(Played after this line:) 
------------------| 
------------------| 
-----------2------| 
-------2-4---4-2--| 
-0-3-4------------| 
------------------| 

       E             D              F          A 
But it just may be a lunatic you're looking for 

It's too late to fight 
(Played after this line:) 
------------------| 
------------------| 
------------------| 
-----------2------| 
-------2-4---4-2--| 
-0-3-4---------0--| 

It's too late to change me 
(Played after this line:) 
------------------| 
------------------| 
-----------2------| 
-------2-4---4-2--| 
-0-3-4---------0--| 
------------------| 

           D               E                   A 
You may be wrong for all I know but you may be right 

Bridge: 
(Follows the verses:) 

A      E  Bm  G  E  A 

Chorus: 

You may be right 
(Played after this line:) 
------------------| 
------------------| 
------------------| 
-----------2------| 
-------2-4---4-2--| 
-0-3-4---------0--| 

I may be crazy 
(Played after this line:) 
------------------| 
------------------| 
-----------2------| 
-------2-4---4-2--| 
-0-3-4---------0--| 
------------------| 

       E             D              F          A 
But it just may be a lunatic you're looking for 

Turn out the lights 
(Played after this line:) 
------------------| 
------------------| 
------------------| 
-----------2------| 
-------2-4---4-2--| 
-0-3-4---------0--| 

Don't try to save me 
(Played after this line:) 
------------------| 
------------------| 
-----------2------| 
-------2-4---4-2--| 
-0-3-4---------0--| 
------------------| 

           D               E                   A 
You may be wrong for all I know but you may be right 

Ending: 
You can either continue to strum A until it fades out 

or 

You can go back and do the Intro until it fades out 


	  

Request the video "You May be Right"  -  Send "You May be Right" Ringtone to your Cell

there isn't a video lesson for this song

request
Full key step upFull key step up
Half key step upHalf key step up
Half key step downHalf key step down
Full key step downFull key step down
Search
auto scroll beats size up size down change color hide chords drawings
tab show chords e-chords YouTube Clip e-chords hide all tabs e-chords go to top tab