Ben Harper

home > Ben Harper > chords

Give a Man a Home Tab

Ben Harper

Difficulty: nolevelnolevel

tuner correct add songbook print version text version rtf version e-mail
chordsukulelecavacokeyboardtabbassdrumsharmonicsflute Guitar Pro
chords

Give a Man a Home

Year: 1995 - Album: Fight for Your Mind

	   
(Open tuning to D)  
 
 
|----------------------------------------------------------------------|| 
|----------------------------------------------------------------------|| 
|---------------------------------------------------------------------.||   
|-----0-0---0--0-------------------------------------------------0----.|| 
|------------------9-9---9---9s7---7-7---------6-------5---5-0h2p0-----|| 
|--0------0--0---9------9---9----7-----7---7s6---6s5-5-----------------|| 
 
|------------------------------------------------------------------------|| 
|------------------------------------------------------------------------|| 
|------------------------------------------------------------------------|| 
|------0-0--------------7-7-------------------------------------------0--|| 
|----0-------0---9s---7-------7---7s9--9--9---9-----7-----5-5---5-0h2----|| 
|--0-------0---0----7-------7---7-----------9---9s7---7s5----------------|| 
 
                  Have you ever lost your way 
                have you ever feared another day 
                have you ever misplaced your mind 
              watching this world leave you behind 
 
                           won't you  
                         won't you give 
                      won't you give a man 
                        give a man a home 
 
                     have you ever worn thin 
            have you ever never known where to begin 
                 have you ever lost your belief 
                watching your faith turn to grief 
 
                           won't you  
                         won't you give 
                      won't you give a man 
                        give a man a home 
 
                   in a world that is unwhole 
             you have got to fight to keep your soul 
               some would rather give than receive 
          some would rather give up before they believe 
 
                           won't you  
                         won't you give 
                      won't you give a man 
                        give a man a home 

	  

Request the video "Give a Man a Home"  -  Send "Give a Man a Home" Ringtone to your Cell

there isn't a video lesson for this song

request
Full key step upFull key step up
Half key step upHalf key step up
Half key step downHalf key step down
Full key step downFull key step down
e-chords
Search
auto scroll beats size up size down change color hide chords drawings
tab show chords e-chords YouTube Clip e-chords hide all tabs e-chords go to top tab