Belmonte e Amaraí

home > Belmonte e... > chords

Mercedita Tab

Belmonte e Amaraí

Difficulty: ExpertExpert

by jvccba

tuner correct add songbook print version text version rtf version e-mail
chordsukulelecavacokeyboardtabbassdrumsharmonicsflute Guitar Pro
chords

Mercedita

	        E                                                                   Am          G 

E|-7-8-10--8--7--8-7-------7-----------------4------------------------------0-----5--3-----| 
B|-------------------10--9---10-9s/6-------6---6-5-3----6-5-3------3-------1-1-------------| 
G|------------------------------------------------------------5--4---5-4--2---2---5--4-----| 
D|-----------------------------------------------------------------------------------------| 
A|-----------------------------------------------------------------------0-----------------| 
E|-----------------------------------------------------------------------------------------| 


     Am        G        Am          G                       F -  C -  Dm -  C -  
       
E|---5----8---7---------8------12--10------------------------------------------------------| 
B|--5-5---10--8-------10-10----13--12------------------------------------------------------| 
G|-5---5-------------9-----9---------------10-9-7-------7----------------------------------| 
D|-----------------------------------------------10-9-7--10-9-7----10-9-7------7-----------| 
A|-------------------------------------------------------------10-8------10-8-7-10-8-7-----| 
E|------------------------------------------------------------------------------------10-8-| 

                   Bb7    -  Bb7    -  Am   

E|-----------------------------------------------------------------------------------------| 
B|------------------------------------------------------------8-10-8s/10-------------------| 
G|-----------------------------------------------------7-9-10------------------------------| 
D|----------------------------------7-9-10------7-9-10-------------------------------------| 
A|-------5-7-8-----5-7-8-10--7-8-10--------8-10--------------------------------------------| 
E|-5-6-8-------6-8-------------------------------------------------------------------------| 




(Am - E) 

E|-------12-12-10-13-12-------12-12-10-13-12------12-12-10-13-12-----12-12-10-13-12--------| 
B|-10-13----------------10-13----------------9-12---------------9-12-----------------------| 
G|-----------------------------------------------------------------------------------------| 
D|-----------------------------------------------------------------------------------------| 
A|-----------------------------------------------------------------------------------------| 
E|-----------------------------------------------------------------------------------------| 


                                              E - Dm - C - B - Am 
    
E|-------12-12-10-13-12-------12-12-10-12---12-13-12-0-10-12-10-0-8-10-8-0-7-8-7-0-5-------| 
B|-10-13----------------10-13--------------------------------------------------------------| 
G|-----------------------------------------------------------------------------------------| 
D|-----------------------------------------------------------------------------------------| 
A|-----------------------------------------------------------------------------------------| 
E|-----------------------------------------------------------------------------------------| 


(Am - E) 

E|----------------------------------------------------------------------------------------| 
B|----------------------------------------------------------------------------------------| 
G|----------------------------------------------------------------------------------------| 
D|----------------------------------------------------------------------------------------| 
A|-----------8--8-7------8--8-7-------8---8-7-------8---8-7-------8---8-7------8---8------| 
E|-5---5-5-5--5----5-5-5---5----7-7-7---7-----7-7-7---7-----5-5-5---5----5-5-5---5--------| 

  
    E - Dm - C - B - Am                        A - Dm - G - C - C - E - E - Am  
  
E|----------------------------------------------------------------------------------------| 
B|----------------------------------------------------------------------------------------| 
G|--------------------------------------------------5h~7-5--------------------------------| 
D|------------------------------------------------7-------8----8s/10---8-10-8---12-12--8-7| 
A|-7-8-7-5-7-5---5------------------------------4-----------------------------------------| 
E|-------------8---8-7-8-7-5------------------5-------------------------------------------| 


                                                               A - Dm - G - C - C - E - E - Am  
  

E|---------------------------------------------------------------------------------------| 
B|--------------------------------------------------------------5-8s/10-8-6--6h8--6-8-6--| 
G|-------------------------------------------------------------6-------------------------| 
D|------------------------------------------------------------7--------------------------| 
A|-7h~8--7-8-7---(7.8.7.8.5)-7-5--7-5----7-5--5-7-8-5-6-7--------------------------------| 
E|---------------------------------------------------------------------------------------| 

*(.) = MUITO RÁPIDO = ter capacidade = Treinar devagar! 



E|---------------------------------------------------------------------------------------| 
B|-8s/10-10--6-5--5h/6---5-6-5----(5.6.5.6.3)-5-3-----5-3----5-3--3--5--6----5-----------| 
G|-----------------------------------------------------------------------------5---------| 
D|---------------------------------------------------------------------------------------| 
A|---------------------------------------------------------------------------------------| 
E|---------------------------------------------------------------------------------------| 


(Am - E) 

E|---------------------5--8-7-5--8-7-------------------6--7--7-5-4-0-5-------------------| 
B|-------------------5------------------------------5------------------------------------| 
G|-------9-9-7-10-9--------------------9-9-7-10-9----------------------------9-9-7-10-9--| 
D|--7-10---------------------------6-9----------------------------------7-10-------------| 
A|---------------------------------------------------------------------------------------| 
E|---------------------------------------------------------------------------------------| 


                     E - Dm - C - B - Am              (Am - E) 
          
E|---5---8-7-5------12----10-8--------7---5------------12-12-10-13-12--------12----------| 
B|-5---------------------------------------------10-13-----------------10-13-------------| 
G|------------------13----10-9----7-7-7---5----------------------------------------------| 
D|---------------------------------------------------------------------------------------| 
A|---------------------------------------------------------------------------------------| 
E|---------------------------------------------------------------------------------------| 


E|-13-12-10----12--------12-12-10-13-12-------10---13-12-10-----12----------12-12-10-13-12-| 
B|----------13------9-12-----------------9-12----------------13-------10-13----------------| 
G|-----------------------------------------------------------------------------------------| 
D|-----------------------------------------------------------------------------------------| 
A|-----------------------------------------------------------------------------------------| 
E|-----------------------------------------------------------------------------------------| 


                                 E - Dm - C - B - Am 

E|-------13-12-10------12-----10-----8-----7-----5------------------------------------------| 
B|-10-13---------------13-----10-----9-----7-----5------------------------------------------| 
G|-----------------------------------------------5------------------------------------------| 
D|-----------------------------------------------7------------------------------------------| 
A|-----------------------------------------------7------------------------------------------| 
E|-----------------------------------------------5------------------------------------------| 
	  

Request the video "Mercedita"  -  Send "Mercedita" Ringtone to your Cell

there isn't a video lesson for this song

request
Full key step upFull key step up
Half key step upHalf key step up
Half key step downHalf key step down
Full key step downFull key step down
Search
auto scroll beats size up size down change color hide chords drawings
tab show chords e-chords YouTube Clip e-chords hide all tabs e-chords go to top tab