Barón Rojo

home > Barón Rojo > chords

Los Rockeros Van Al Infierno(Mejorada) Tab

Barón Rojo

Difficulty: ExpertExpert

by ironmejiab

tuner correct add songbook print version text version rtf version e-mail
chordsukulelecavacokeyboardtabbassdrumsharmonicsflute Guitar Pro
chords

Los Rockeros Van Al Infierno(Mejorada)

	  Los Rockeros Van Al Infierno (mejorada) 
Volumen Brutal 
Barón Rojo 
 
/:SLIDE 
X:SE REPITE NOTA ANTERIOR 
H:HAMER ON 
B(XXX):BEND 
V:VIBRATOR 
PM:PALM MUTING 
 
Intro:Guitarra 1 y 2 
X2 
    C5        C5   D#5           D#5            A#5  C5           C5 
E|---------|------------------|---------------|----------------|--------------| 
B|---------|------------------|---------------|----------------|--------------| 
G|-------8-|---------------11-|-------------6-|-------------8--|----------8---| 
D|--10---8-|--10/--13------11-|--13/--8-----6-|-8/--10------8--|--10-x----8---| 
A|--10-----|--10/--13---------|--13/--8-------|-8/--10---------|--10-x--------| 
E|--8--8---|--8-/--11--11-----|--11/--6--6----|-6/--8---8------|--8--x-8------| 
 
Guitarra 1 
 
X2 
E|-------------------|---------------15V-| 
B|-B(11-12-13)-11----|-------------------| 
G|-----------------12|X3--13-H11-11------| 
D|-------------------|-------------------| 
A|-------------------|-------------------| 
E|-------------------|-------------------| 
 
Guitarra 2 
X2 
    C5               A#5               C5 
E|-----------------|----------------|------------------|-------------------| 
B|-----------------|----------------|------------------|-------------------| 
G|-----------------|----------------|------------------|-------------------| 
D|-5-X-X-X-X-X-X-X-|-8-X-X-X-X-X-X-X|-10-X-X-X-X-X-X-X-|-------------------| 
A|-5-X-X-X-X-X-X-X-|-8-X-X-X-X-X-X-X|-10-X-X-X-X-X-X-X-|--3--H1-1----------| 
E|-3-X-X-X-X-X-X-X-|-6-X-X-X-X-X-X-X|-8--X-X-X-X-X-X-X-|----------3-----3--| 
   PM.............   PM.............  PM................ 
 
VERSO 1:Riff 1 
C5                 D#5  
SE OYE COMENTAR, A LAS GENTES DEL LUGAR 
F5 
LOS ROCKEROS NO SON BUENOS 
Gutarra 2           Guitarra 1   
D|-------------    E|---6---6-------  (Se hace a la segunda 
A|---1---1-----X2  B|-8---8---8-----X1 vez que lo hace la 
E|-3---3---3---    G|---------------   guitarra 1 ) 
 
    C5                       D#5 
SI NO TE PORTAS BIEN,TE ECHARÁS PRONTO A PERDER, 
F5 
Y CAERÁS EN EL INFIERNO. 
Guitarra 2                 Guitarra 1 
E|-------------------    E|---6---6----------     
B|---1---1-----------X2  B|-8---8---8--------       
G|-3---3---3---------    G|------------------ 
 
CORO:Riff 2 
C5           D#5   D#5          C5 
SI HAS DE VIVIR,EN EL VALLE DEL ROCK 
C5       D#5  F5       C5 
TE ALCANZARÁ,LA MALDICIÓN 
 D#5       A#5        C5  D#5/A#5           D5... 
NUNCA TENDRÁS REPUTACIÓN.........QUE MAS DA  
.................. 
MI ROLLO ES EL ROCK 
 
INTRO 
  X2 
E|-------------------|---------------15V-| 
B|-B(11-12-13)-11----|-------------------| 
G|-----------------12|X3--13-H11-11------| 
D|-------------------|-------------------| 
A|-------------------|-------------------| 
E|-------------------|-------------------| 
 
Guitarra 2 
X2 
    C5               A#5               C5 
E|-----------------|----------------|------------------|-------------------| 
B|-----------------|----------------|------------------|-------------------| 
G|-----------------|----------------|------------------|-------------------| 
D|-5-X-X-X-X-X-X-X-|-8-X-X-X-X-X-X-X|-10-X-X-X-X-X-X-X-|-------------------| 
A|-5-X-X-X-X-X-X-X-|-8-X-X-X-X-X-X-X|-10-X-X-X-X-X-X-X-|--3--H1-1----------| 
E|-3-X-X-X-X-X-X-X-|-6-X-X-X-X-X-X-X|-8--X-X-X-X-X-X-X-|----------3-----3--| 
   PM.............   PM.............  PM................ 
VERSO 2:Riff 1 
 
 C5              D#5  
VA SIN AFEITAR,DICE EL SHERIFF DEL LUGAR, 
  F5 
Y ADEMÁS CON TÍAS BUENAS 
 
Guitarra 2                 Guitarra 1 
E|-------------------    E|---6---6----------     
B|---1---1-----------X2  B|-8---8---8--------       
G|-3---3---3---------    G|------------------ 
 C5                 D#5 
DICEN QUE FUMAR,ES PECADO Y ES MORTAL, 
   F5 
Y AL INFIERNO ME CONDENA. 
 
Guitarra 2                 Guitarra 1 
E|-------------------    E|---6---6----------     
B|---1---1-----------X2  B|-8---8---8--------       
G|-3---3---3---------    G|------------------ 
 
CORO:Riff 2 
 C5           D#5    D#5           C5 
SI HE DE ESCOGER ENTRE ELLOS Y EL ROCK 
C5  D#5 F5        C5  D#5         A#5  
ELEGIRÉ MI PERDICIÓN,SE QUE AL FINAL 
          C5 D#5/A#5         D5   
TENDRÉ RAZÓN........Y ELLOS NO 
................... 
MI ROLLO ES EL ROCK. 
 
Guitarra 1 
D|-------------- 
A|-3-2-1-0------MUCHAS VECES A LA 5° VEZ ENTRA 
E|----------3---LA GUITARRA 2 ASI. 
 
   C5                    A#5                 F5                  G5      
D|-10-PMX-PMX-PMX-PMX-X-|8-PMX-PMX-PMX-PMX-X|3-PMX-PMX-PMX-PMX-X|5-PMX-PMX-PMX-PMX-X-- 
A|-10-PMX-PMX-PMX-PMX-X-|8-PMX-PMX-PMX-PMX-X|3-PMX-PMX-PMX-PMX-X|5-PMX-PMX-PMX-PMX-X-- 
E|-8--PMX-PMX-PMX-PMX-X-|6-PMX-PMX-PMX-PMX-X|1-PMX-PMX-PMX-PMX-X|3-´MX-PMX-PMX-PMX-X-- 
 
SE REPITE HASTA QUE ENTRA GUITARRA 3 CON EL SOLO 
PERO CUANDO EL SOLO ESTALLA LA GUITARRA 1 SE UNO CON 
LA 2 HACIENDO LOS ACORDES ASI. 
 
BASE DEL SOLO 
  C5               A#5             F5              G5  
D|10-X-X-X-X-X-X-X|8-X-X-X-X-X-X-X|3-X-X-X-X-X-X-X|5-X-X-X-X-X-X-X-- 
A|10-X-X-X-X-X-X-X|8-X-X-X-X-X-X-X|3-X-X-X-X-X-X-X|5-X-X-X-X-X-X-X-- 
E|8--X-X-X-X-X-X-X|6-X-X-X-X-X-X-X|1-X-X-X-X-X-X-X|3-X-X-X-X-X-X-X-- 
  PM.............. PM............. PM............. PM.............. 
 
 
VERSO 2:Riff 1 
 C5             D#5 
QUE RISA ME DA,ESA FALSA HUMANIDAD 
 F5 
DE LOS QUE SE DICEN BUENOS 
 
 
Guitarra 2                 Guitarra 1 
E|-------------------    E|---6---6----------     
B|---1---1-----------X2  B|-8---8---8--------       
G|-3---3---3---------    G|------------------ 
C5                D#5 
NO PERDONARÁN,MI PECADO ORIGINAL 
 F5 
DE SER JÓVEN Y ROCKERO 
 
  
Guitarra 2                 Guitarra 1 
E|-------------------    E|---6---6----------     
B|---1---1-----------X2  B|-8---8---8--------       
G|-3---3---3---------    G|------------------ 
 
CORO:Riff 2 
 
 C5           D#5    D#5           C5 
SI HE DE ESCOGER ENTRE ELLOS Y EL ROCK 
C5  D#5 F5        C5  D#5         A#5  
ELEGIRÉ MI PERDICIÓN,SE QUE AL FINAL 
          C5 D#5/A#5         D5   
TENDRÉ RAZÓN........Y ELLOS NO 
................... 
MI ROLLO ES EL ROCK. 
 
 
 INTRO 
  X2 
E|-------------------|---------------15V-| 
B|-B(11-12-13)-11----|-------------------| 
G|-----------------12|X3--13-H11-11------| 
D|-------------------|-------------------| 
A|-------------------|-------------------| 
E|-------------------|-------------------| 
 
Guitarra 2 
X2 
    C5               A#5               C5 
E|-----------------|----------------|------------------|-------------------| 
B|-----------------|----------------|------------------|-------------------| 
G|-----------------|----------------|------------------|-------------------| 
D|-5-X-X-X-X-X-X-X-|-8-X-X-X-X-X-X-X|-10-X-X-X-X-X-X-X-|-------------------| 
A|-5-X-X-X-X-X-X-X-|-8-X-X-X-X-X-X-X|-10-X-X-X-X-X-X-X-|--3--H1-1----------| 
E|-3-X-X-X-X-X-X-X-|-6-X-X-X-X-X-X-X|-8--X-X-X-X-X-X-X-|----------3-----3--| 
 
Guitarra 1 
X2 
E|------------------|--------------15V----- 
B|-B(12-13-14)-11---|X3-14--H12-12--------- 
G|----------------12|---------------------- 
 
Guitarra 2 
X2 
 
    C5               A#5               C5 
E|-----------------|----------------|------------------|-------------------| 
B|-----------------|----------------|------------------|-------------------| 
G|-----------------|----------------|------------------|-------------------| 
D|-5-X-X-X-X-X-X-X-|-8-X-X-X-X-X-X-X|-10-X-X-X-X-X-X-X-|-------------------| 
A|-5-X-X-X-X-X-X-X-|-8-X-X-X-X-X-X-X|-10-X-X-X-X-X-X-X-|--3--H1-1----------| 
E|-3-X-X-X-X-X-X-X-|-6-X-X-X-X-X-X-X|-8--X-X-X-X-X-X-X-|----------3-----3--| 
 
   PM.............   PM.............  PM................       
Guitarra 2 
 
|-5-x-x-x-x-x-x-x-x-x-x-x-x--- 
|-5-x-x-x-x-x-x-x-x-x-x-x-x--- 
|-3-x-x-x-x-x-x-x-x-x-x-x-x--- 
 
FIN 
 

	  

Request the video "Los Rockeros Van Al Infierno(Mejorada)"  -  Send "Los Rockeros Van Al Infierno(Mejorada)" Ringtone to your Cell

there isn't a video lesson for this song

request
e-chords
Search
auto scroll beats size up size down change color hide chords drawings
tab show chords e-chords YouTube Clip e-chords hide all tabs e-chords go to top tab