Badfinger

home > Badfinger > chords

Midnight Caller Tab

Badfinger

Difficulty: nolevelnolevel

by gustsilva

tuner correct add songbook print version text version rtf version e-mail
chordsukulelecavacokeyboardtabbassdrumsharmonicsflute Guitar Pro
chords

Midnight Caller

	                APPLE RECORDS on 9th November 1970. 

Capo 3
 
                                      
  A               Bm7             Cdim            A7 
e|------- ------- ------- -------|------- ------- ------- -------| 
B|2-------2-------3-------3------|4-------4-------5-------5------| 
G|2-------2-------4-------4------|5-------5-------6-------6------| 
D|2-------2-------4-------4------|4-------4-------5-------5------| 
A|0-------0-------0---0---0---0--|0---0---0---0---0---0---0---0--| 
E|-------------------------------|-------------------------------| 
 
  D                               F#m7 
e|2------ 2------ 2------ 2------|2------ 2------ 2------ 2------|  
B|3-------3-------3-------3------|5-------5-------5-------5------| 
G|2-------2-------2-------2------|2-------2-------2-------2------| 
D|0---------------0--------------|4-------4-------4-------4------| 
A|------------0------------------|----4--------------------------| 
E|-------------------------------|2---------------2-----------2--| 
 
      Beneath the midnight    caller 
e|2---2-- 2------ 2------ 2------|2---2-- 2------ 2------ 2------| 
 
B|3---3---3-------3-------3------|2---2---2-------2-------2------| 
G|2---2---2-------2-------2------|2---2---2-------2-------2------| 
D|0---0---0-------0-------0------|4---4---4-------4-------4------| 
A|-------------------------------|4---4---4-------4-------4------| 
E|-------------------------------|2---2---2-------2-------2------| 
 
                                  F#m 

  G                               D 
e|3------ 3------ 3------ 3------|2------ 2------ 2------ 2------| 
B|3-------3-------3-------3------|3-------3-------3-------3------| 
G|4-------4-------4-------4------|2-------2-------2-------2------| 
D|5-------5-------5-------5------|0---------------0--------------| 
A|------------5------------------|------------0---------------0--| 
E|3------------------------------|-------------------------------| 
 
      She thinks  
              of  paper       green 
e|3---3-- 3---3-- 3---3-- 3------|2------ 2---2-- 2---2-- 2------|  
B|3---3---3---3---3---3---3------|3-------3---3---3---3---3------| 
G|4---4---4---4---4---4---4------|2-------2---2---2---2---2------| 
D|5---5---5---5---5---5---5------|0-------0---0---0---0---0------| 
A|5---5---5---5---5---5---5------|-------------------------------| 
E|3---3---3---3---3---3---3------|-------------------------------| 
 
  G                               D               Bm 
e|3------ 3------ 3------ 3------|2------ 2------ 2------ 2------|  
B|3-------3-------3-------3------|3-------3-------3-------3------| 
G|4-------4-------4-------4------|2-------2-------4-------4------| 
D|5-------5-------5-------5------|0---------------4-------4------| 
A|-------------------------------|--------4-------2--------------| 
E|3---------------3-------3---5--|------------------------2------| 
 
      You never   hear    them calling    her name 
e|3---3-- 3---3-- 3---3-- 3------|2---2-- 2------ 2---2-- 2------|  
B|3---3---3---3---3---3---3------|3---3---3-------3---3---3------| 
G|4---4---4---4---4---4---4------|2---2---2-------4---4---4------| 
D|5---5---5---5---5---5---5------|0---0---0-------4---4---4------| 
A|5---5---5---5---5---5---5------|----------------2---2---2------| 
E|3---3---3---3---3---3---3------|-------------------------------| 
 
  Em                              A       Bm7     Cdim    A7 
e|3------ 3------ 3------ 3------|0------ 2------ 2------ 3------|  
B|0-------0-------0-------0------|2-------3-------4-------5------| 
G|0-------0-------0-------0------|2-------4-------5-------6------| 
D|2-------2-------2---2----------|2-------4-------4-------5------| 
A|----------------2--------------|0-------0-------0-------0------| 
E|0-------3---0-----------0------|-------------------------------| 
 
     They just know  
                  where they've been                             
e|0---0-- 0------ 0---0-- 0------|0---0-- 0---0-- 0------ 0------|  
B|3---3---3-------3---3---3------|2---2---2---2---2-------2------| 
G|0---0---0-------0---0---0------|2---2---2---2---2-------2------| 
D|2---2---2-------2---2---2------|2---2---2---2---2-------2------| 
A|2---2---2-------2---2---2------|0---0---0---0---0-------0------| 
E|0---0---0-------0---0---0------|-------------------------------| 
 
  Em7                              

  D                               F#m7 
e|2------ 2------ 2------ 2------|2------ 2------ 2------ 2------| 
B|3-------3-------3-------3------|5-------5-------5-------5------| 
G|2-------2-------2-------2------|2-------2-------2-------2------| 
D|0-----------------------0------|4-------4-------4-------4------| 
A|------------0-------0-------0--|------------4---------------4--| 
E|-------------------------------|2-------------------2----------| 
 
      You never   hear her    holler 
e|2---2-- 2---2-- 2---2-- 2---2--|2---2-- 2------ 2----2- 2---2--| 
B|3---3---3---3---3---3---3---3--|2---2---2-------5----5--5---5--| 
G|2---2---2---2---2---2---2---2--|2---2---2-------2----2--2---2--| 
D|0---0---0---0---0---0---0---0--|4---4---4-------4----4--4---4--| 
A|-------------------------------|4---4---4-------4----4--4---4--| 
E|-------------------------------|2---2---2-------2----2--2---2--| 
 
                                  F#m 

  G                               D 
e|3------ 3------ 3------ 3------|2------ 2------ 2------ 2------| 
B|3-------3-------3-------3------|3-------3-------3-------3------| 
G|4-------4-------4-------4------|2-------2-------2-------2------| 
D|5-------5-------5-------5------|0---------------0---0---0------| 
A|-------------------------------|------------0---------------0--| 
E|3-------3-------3-------3---5--|-------------------------------| 
 
      The tears no longer     come 
e|3---3-- 3---3-- 3---3-- 3------|2---2-- 2---2-- 2---2-- 2---2--| 
B|3---3---3---3---3---3---3------|3---3---3---3---3---3---3---3--| 
G|4---4---4---4---4---4---4------|2---2---2---2---2---2---2---2--| 
D|5---5---5---5---5---5---5------|0---0---0---0---0---0---0---0--| 
A|5---5---5---5---5---5---5------|-------------------------------| 
E|3---3---3---3---3---3---3------|-------------------------------| 
 
  G                               D               Bm 
e|3------ 3------ 3------ 3------|2------ 2------ 2------ 2------| 
B|3-------3-------3-------3------|3-------3-------3-------3------| 
G|4-------4-------4-------4------|2-------2-------4-------4------| 
D|5-------5-------5-------5------|0---------------4-------4------| 
A|------------5------------------|--------4-------2-----------2--| 
E|3---------------3-------3---5--|------------------------2------| 
 
      She reads her daily     book    of  the past 
e|3------ 3------ 3---3-- 3---3--|2------ 2---2-- 2---2-- 2------|  
B|3-------3-------3---3---3---3--|3-------3---3---3---3---3------| 
G|4-------4-------4---4---4---4--|2-------2---2---4---4---4------| 
D|5-------5-------5---5---5---5--|0-------0---0---4---4---4------| 
A|5-------5-------5---5---5---5--|----------------2---2---2------| 
E|3-------3-------3---3---3---3--|-------------------------------| 
 

                                                        x X X x 
  Em                              A       Bm7     Cdim    A7 
e|3------ 3------ 3------ 3------|0------ 2------ 2------ 3------|  
B|0-------0-------0-------0------|2-------3-------4-------5------| 
G|0-------0-------0-------0------|2-------4-------5-------6------| 
D|2-------2-------2-------0------|2-------4-------4-------5------| 
A|------------2---------------2--|0-------0-------0-------0------| 
E|0------------------------------|-------------------------------| 
 
     That shows of everyone 
e|0---0-- 0---0-- 0---0-- 0---0--|0---0-- 0---0-- 0---0-- 0------|  
B|3---3---3---3---3---3---3---3--|2---2---2---2---2---2---2------| 
G|0---0---0---0---0---0---0---0--|2---2---2---2---2---2---2------| 
D|2---2---2---2---2---2---2---2--|2---2---2---2---2---2---2------| 
A|2---2---2---2---2---2---2---2--|0---0---0---0---0---0---0------| 
E|0---0---0---0---0---0---0---0--|-------------------------------| 
 
  Em7                              
                        x X X x   X                   X X   X X 
  Bm                              F#m7 
e|2------ 2------ 2------ 2------|2------ 2------ 2------ 2------| 
B|3-------3-------3-------3------|5-------5-------5-------5------| 
G|4-------4-------4-------4------|2-------2-------2-------2------| 
D|4-------4-------4-------4------|4-------4-------4-------4------| 
A|2---------------2---2---2------|------------4-----------4---4--| 
E|------------2------------------|2---------------2---2---2------| 
 
          Grey    years      that show  
                                    in her hair 
e|2---2-- 2------ 2------ 2---2--|2---2-- 2---2-- 2---2-- 2---2--| 
B|3---3---3-------3-------3---3--|2---2---2---2---2---2---2---2--| 
G|4---4---4-------4-------4---4--|2---2---2---2---2---2---2---2--| 
D|4---4---4-------4-------4---4--|4---4---4---4---4---4---4---4--| 
A|2---2---2-------2-------2---2--|4---4---4---4---4---4---4---4--| 
E|-------------------------------|2---2---2---2---2---2---2---2--| 
 
                                  F#m 
                          Xxx x                       X X   X x 
  G                               D                       Dmaj7 
e|3------ 3------ 3------ 3------|2------ 2------ 2------ 2------|  
B|3-------3-------3-------3------|3-------3-------3-------3------| 
G|4-------4-------4-------4------|2-------2-------2-------2------| 
D|5-------5-------5-------5------|0---------------0--------------| 
A|------------5------------------|------------0-----------4------| 
E|3---------------3---3---3------|-------------------------------| 
 
          Can't   be,         but don't  
                                    seem  
                                       to care 
e|3---3-- 3---3-- 3---3-- 3---3--|2------ 2---2-- 2------ 2------|  
B|3---3---3---3---3---3---3---3--|3-------3---3---3-------3------| 
G|4---4---4---4---4---4---4---4--|2-------2---2---2-------2------| 
D|5---5---5---5---5---5---5---5--|0-------0---0---0-------0------| 
A|5---5---5---5---5---5---5---5--|-------------------------------| 
E|3---3---3---3---3---3---3---3--|-------------------------------| 
 

                      X X x x X   X           X           X   xx 
  Bm                              G   Gmaj7   G6 
e|2------ 2------ 2------ 2------|3---2-- ----0-- ------- -------| 
B|3-------3-------3-------3------|3---3-------3------------------| 
G|4-------4-------4-------4------|0---0-------0------------------| 
D|4-------4-------4-------4------|----0---0----------------------| 
A|2-------2-------2-------2------|----2--------------------------| 
E|------------2------------------|3------------------------------| 
 
     She  
        unlocks  
            the door      and there's 
                                   no one     there 
e|2------ 2---2-- 2------ 2------|3---2-- ----0-- ------- -------| 
B|3-------3---3---3-------3------|3---3-------3------------------| 
G|4-------4---4---4-------4------|4---2-------0------------------| 
D|4-------4---4---4-------4------|5---0-------2------------------| 
A|2-------2---2---2-------2------|5-----------2------------------| 
E|-------------------------------|3-----------0------------------| 
 
                                  G   D       Em7 

  A               Bm7             Cdim            A7 
e|0------ 0------ 2------ 2------|2------ 2------ 3------ 3------| 
B|2-------2-------3-------3------|4-------4-------5-------5------| 
G|2-------2-------4-------4------|5-------5-------6-------6------| 
D|2-------2-------4-------4------|4-------4-------5-------5------| 
A|--------0-------0-------0------|0---0---0-------0---0---0------| 
E|-------------------------------|----------------------------0--|      
  D                               F#m7 
e|2------ 2------ 2------ 2------|2------ 2------ 2------ 2------| 
B|3-------3-------3-------3------|5-------5-------5-------5------| 
G|2-------2-------2-------2------|2-------2-------2-------2------| 
D|0-----------------------0------|4-------4-------4-------4------| 
A|------------0-------0----------|4-------4-------4-------4------| 
E|-------------------------------|2-----------2-------2----------| 
 
      She sees a  daytime     stroller 
e|2------ 2---2-- 2------ 2------|2---2-- 2---2-- 2---2-- 2------| 
 
B|3-------3---3---3-------3------|2---2---2---2---2---2---2------| 
G|2-------2---2---2-------2------|2---2---2---2---2---2---2------| 
D|0-------0---0---0-------0------|4---4---4---4---4---4---4------| 
A|-------------------------------|4---4---4---4---4---4---4------| 
E|-------------------------------|2---2---2---2---2---2---2------| 
 
                                  F#m 

  G                               D 
e|3------ 3------ 3------ 3------|2------ 2------ 2------ 2------| 
B|3-------3-------3-------3------|3-------3-------3-------3------| 
G|4-------4-------4-------4------|2-------2-------2-------2------| 
D|5-------5-------5-------5------|0---------------0-------0------| 
A|------------5-------5----------|------------0---------------0--| 
E|3---------------------------5--|-------------------------------| 
 
     Walk from the night  before 
e|3---3-- 3---3-- 3---3-- 3------|2---2-- 2------ 2---2-- 2------| 
B|3---3---3---3---3---3---3------|3---3---3-------3---3---3------| 
G|4---4---4---4---4---4---4------|2---2---2-------2---2---2------| 
D|5---5---5---5---5---5---5------|0---0---0-------0---0---0------| 
A|5---5---5---5---5---5---5------|-------------------------------| 
E|3---3---3---3---3---3---3------|-------------------------------| 
 
               

  G                               D               Bm 
e|3------ 3------ 3------ 3------|2------ 2------ 2------ 2------|  
B|3-------3-------3-------3------|3-------3-------3-------3------| 
G|4-------4-------4-------4------|2-------2-------4-------4------| 
D|5-------5-------5-------5------|0---------------4-------4------| 
A|-------------------------------|--------4-------2--------------| 
E|3---------------3---3-------5--|-------------------------------| 
 
      And though   
              she paints  a   smile   on  her face 
e|3---3-- 3------ 3---3-- 3------|2---2-- 2------ 2---2-- 2------|  
B|3---3---3-------3---3---3------|3---3---3-------3---3---3------| 
G|4---4---4-------4---4---4------|2---2---2-------4---4---4------| 
D|5---5---5-------5---5---5------|0---0---0-------4---4---4------| 
A|5---5---5-------5---5---5------|----------------2---2---2------| 
E|3---3---3-------3---3---3------|-------------------------------| 
 

                                                      XXX x x X 
  Em                              A       Bm7     Cdim    A7 
e|3------ 3------ 3------ 3------|0------ 2------ 2------ 3------|  
B|0-------0-------0-------0------|2-------3-------4-------5------| 
G|0-------0-------0-------0------|2-------4-------5-------6------| 
D|2-------2-------2-------2------|2-------4-------4-------5------| 
A|--------------------0----------|0-------0-------0-------0------| 
E|0-------0-------0--------------|--------------------0-------0--| 
 
      He won't be back    no more 
e|0------ 0------ 0---0-- 0------|0---0-- 0---0-- 0---0-- 0------|  
B|3-------3-------3---3---3------|2---2---2---2---2---2---2------| 
G|0-------0-------0---0---0------|2---2---2---2---2---2---2------| 
D|2-------2-------2---2---2------|2---2---2---2---2---2---2------| 
A|2-------2-------2---2---2------|0---0---0---0---0---0---0------| 
E|0-------0-------0---0---0------|-------------------------------| 
 
  Em7                                                         

  D                               F#m7 
e|2------ 2------ 2------ 2------|2------ 2------ 2------ 2------| 
B|3-------3-------3-------3------|5-------5-------5-------5------| 
G|2-------2-------2-------2------|2-------2-------2-------2------| 
D|0-----------------------0------|4-------4-------4-------4------| 
A|------------0-------0-------0--|------------4---------------4--| 
E|-------------------------------|2-------------------2----------| 
 
     She's got no saint   to  follow 
e|----2-- 2---2-- 2---2-- 2---2-2|2---2-- 2---2-- 2---2-- 2---2--|  
B|----3---3---3---3---3---3---3-3|2---2---2---2---5---5---5---5--| 
G|----2---2---2---2---2---2---2-2|2---2---2---2---2---2---2---2--| 
D|----0---0---0---0---0---0---0-0|4---4---4---4---4---4---4---4--| 
A|-------------------------------|4---4---4---4---4---4---4---4--| 
E|-------------------------------|2---2---2---2---2---2---2---2--| 
 
                                  F#m             F#m7 

  G                               D 
e|3------ 3------ 3------ 3------|2------ 2------ 2------ 2------|  
B|3-------3-------3-------3------|3-------3-------3-------3------| 
G|4-------4-------4-------4------|2-------2-------2-------2------| 
D|5-------5-------5-------5------|0-----------------------0------| 
A|------------5------------------|------------0--------0------0--| 
E|3---------------3-------3---5--|-------------------------------| 
 
     She's got no place   to  go  
e|3------ 3---3-- 3---3-- 3---3--|2---2-- 2---2-- 2---2-- 2---2--| 
B|3-------3---3---3---3---3---3--|3---3---3---3---3---3---3---2--| 
G|4-------4---4---4---4---4---4--|2---2---2---2---2---2---2---2--| 
D|5-------5---5---5---5---5---5--|0---0---0---0---0---0---0---0--| 
A|5-------5---5---5---5---5---5--|-------------------------------| 
E|3-------3---3---3---3---3---3--|-------------------------------| 
 
               
               

                                                          X X x 
  G                               D               Bm 
e|3------ 3------ 3------ 3------|2------ 2------ 2------ 2------|  
B|3-------3-------3-------3------|3-------3-------3-------3------| 
G|4-------4-------4-------4------|2-------2-------4-------4------| 
D|5-------5-------5-------5------|0---0-----------4-------4------| 
A|-------------------------------|--------4-------2--------------| 
E|3-----------------------3---5--|------------------------2------| 
 
     Too proud to ask     an  old   friend for help 
e|3------ 3------ 3---3-- 3------|2---2-- 2------ 2---2-- 2------|  
B|3-------3-------3---3---3------|3---3---3-------3---3---3------| 
G|4-------4-------4---4---4------|2---2---2-------4---4---4------| 
D|5-------5-------5---5---5------|0---0---0-------4---4---4------| 
A|5-------5-------5---5---5------|----------------2---2---2------| 
E|3-------3-------3---3---3------|-------------------------------| 
 

                                                       X  X   xx 
  Em                              A       Bm7     Cdim    A7 
e|3------ 3------ 3------ 3------|0------ 2------ 2------ 3------|  
B|0-------0-------0-------0------|2-------3-------4-------5------| 
G|0-------0-------0-------0------|2-------4-------5-------6------| 
D|2-------2-------2-------2------|2-------4-------4-------5------| 
A|--------2-------------------2--|0---0---0-------0-------0------| 
E|0---------------0---0----------|-------------------------------| 
 
      Too proud to let    him know 
e|0------ 0------ 0---0-- 0------|0---0-- 0---0-- 0---0-- 0------| 
B|3-------3-------3---3---3------|2---2---2---2---2---2---2------| 
G|0-------0-------0---0---0------|2---2---2---2---2---2---2------| 
D|2-------2-------2---2---2------|2---2---2---2---2---2---2------| 
A|2-------2-------2---2---2------|0---0---0---0---0---0---0------| 
E|0-------0-------0---0---0------|-------------------------------| 
 
  Em7                                                                     
                      XXXXx X X                       X X   X X 
  Bm                              F#m7 
e|2------ 2------ 2------ 2------|2------ 2------ 2------ 2------|  
B|3-------3-------3-------3------|5-------5-------5-------5------| 
G|4-------4-------4-------4------|2-------2-------2-------2------| 
D|4-------4-------4-------4------|4-------4-------4-------4------| 
A|2---------------2-------2------|------------4------------------| 
E|------------2------------------|2-------2-------2---2---2------| 
 
          Grey    years      that show  
                                    in her hair 
e|2---2-- 2---2-- 2---2-- 2------|2---2-- 2---2-- 2------ 2------| 
B|3---3---3---3---3---3---3------|2---2---2---2---2-------2------| 
G|4---4---4---4---4---4---4------|2---2---2---2---2-------2------| 
D|4---4---4---4---4---4---4------|4---4---4---4---4-------4------| 
A|2---2---2---2---2---2---2------|4---4---4---4---4-------4------| 
E|-------------------------------|2---2---2---2---2-------2------| 
 
                                  F#m 
                                                      x   X X x 
  G                               D                       Dmaj7 
e|3------ 3------ 3------ 3------|2------ 2------ 2------ 2------|  
B|3-------3-------3-------3------|3-------3-------3-------3------| 
G|4-------4-------4-------4------|2-------2-------2-------2------| 
D|5-------5-------5-------5------|0---------------0--------------| 
A|-------------------------------|------------0-----------4------| 
E|3-------3-------3---3---3---5--|-------------------------------| 
 
          Can't   be,         but don't  
                                    seem  
                                       to care 
e|3---3-- 3---3-- 3------ 3------|2---2-- 2---2-- 2---2-- 2------|  
B|3---3---3---3---3-------3------|3---3---3---3---3---3---3------| 
G|4---4---4---4---4-------4------|2---2---2---2---2---2---2------| 
D|5---5---5---5---5-------5------|0---0---0---0---0---0---0------| 
A|5---5---5---5---5-------5------|-------------------------------| 
E|3---3---3---3---3-------3------|-------------------------------| 
 

                       x  X   xx  X   X       X           X   xx 
  Bm                              G   Gmaj7   G6 
e|2------ 2------ 2------ 2------|3---2-- ----0-- ------- -------|  
B|3-------3-------3-------3------|3---3-------3------------------| 
G|4-------4-------4-------4------|0---0-------0------------------| 
D|4-------4-------4-------4------|0---0---0----------------------| 
A|2---------------2-------2------|----2--------------------------| 
E|------------2------------------|3------------------------------| 
 
     She  
        unlocks  
            the door      and there's 
                                   no one     there 
                                  (no one     there) 
e|2---2-- 2---2-- 2---2-- 2------|3---2-- ----0-- ------- -------| 
B|3---3---3---3---3---3---3------|3---3-------3------------------| 
G|4---4---4---4---4---4---4------|4---2-------0------------------| 
D|4---4---4---4---4---4---4------|5---0-------2------------------| 
A|2---2---2---2---2---2---2------|5-----------2------------------| 
E|-------------------------------|3-----------0------------------| 
 
                                  G   D       Em7 
                                                      x x X X x x 
  D                               Em 
e|2------ 2------ 2------ 2------|3------ 3------ 3------ 3------|  
B|3-------3-------3-------3------|0-------0-------0-------0------| 
G|2-------2-------2-------2------|0-------0-------0-------0------| 
D|0-------0-------0-------0------|2-------2-------2-------2------| 
A|------------0---------------0--|------------2---------------2--| 
E|-------------------------------|0---------------0-------0------| 
 
          Nobody                          nobody 
                          (Nobody                         nobody 
e|2---2-- 2------ 2---2-- 2------|0---0-- 0------ 0---0-- 0------| 
B|3---3---3-------3---3---3------|3---3---3-------3---3---3------| 
G|2---2---2-------2---2---2------|0---0---0-------0---0---0------| 
D|0---0---0-------0---0---0------|2---2---2-------2---2---2------| 
A|-------------------------------|2---2---2-------2---2---2------| 
E|-------------------------------|0---0---0-------0---0---0------| 
 
                                  Em7 
                     xxxx X X x   X 
  D                               G7  Gm7 G7  Bb 
e|2------ 2------ 2------ 2------|1------ ----1-- ------- -------| 
B|3-------3-------3-------3------|3-----------3------------------| 
G|2-------2-------2-------2------|0-----------3------------------| 
D|0-------0---0---0-------0------|0-------0----------------------| 
A|-------------------------------|----1--------------------------| 
E|2---------------2---2---2------|3------------------------------| 
 
          nobody's        gonna   help you    now. 
                                  help you    now.) 
e|2---2-- 2---2-- 2---2-- 2------|1------ ------- ------- -------| 
B|3---3---3---3---3---3---3------|3------------------------------| 
G|2---2---2---2---2---2---2------|3------------------------------| 
D|0---0---0---0---0---0---0------|3------------------------------| 
A|-------------------------------|1------------------------------| 
E|-------------------------------|-------------------------------| 
 
   
	  

Request the video "Midnight Caller"  -  Send "Midnight Caller" Ringtone to your Cell

there isn't a video lesson for this song

request
Full key step upFull key step up
Half key step upHalf key step up
Half key step downHalf key step down
Full key step downFull key step down
Search
auto scroll beats size up size down change color hide chords drawings
tab show chords e-chords YouTube Clip e-chords hide all tabs e-chords go to top tab