Avenged Sevenfold

home > Avenged Se... > chords

Lost Tab

Avenged Sevenfold

Difficulty: ExpertExpert

by hugo_rodrigues

tuner correct add songbook print version text version rtf version e-mail
chordsukulelecavacokeyboardtabbassdrumsharmonicsflute Guitar Pro
chords

Lost

	  (afinação D A D G B e) 

(intro) 
(guitar 1) 
E|---------------------------------------------------------------------------| 
B|-/3--5-6-5-3-5-6-/10-10-/15~-----------------------------------------------| 
G|---------------------------------------------------------------------------| 
D|---------------------------------------------------------------------------| 
A|---------------------------------------------------------------------------| 
D|---------------------------------------------------------------------------| 

(guitar 2 0:03) 
E|---------------------------------------------------------------------------| 
B|-/3--5-6-5-3-5-6-/10-10-/15~-----------------------------------------------| 
G|---------------------------------------------------------------------------| 
D|---------------------------------------------------------------------------| 
A|---------------------------------------------------------------------------| 
D|---------------------------------------------------------------------------| 

(guitar 1 0:06) 
E|---------------------------------------------------------------------------| 
B|-/3--5-6-5-3-5-6-/10-10-/15~-----------------------------------------------| 
G|---------------------------------------------------------------------------| 
D|---------------------------------------------------------------------------| 
A|---------------------------------------------------------------------------| 
D|---------------------------------------------------------------------------| 

(guitar 2 0:09) 
E|---------------------------------------------------------------------------| 
B|-/3--5-6-5-3-5-6-/10-10-/15~-----------------------------------------------| 
G|---------------------------------------------------------------------------| 
D|---------------------------------------------------------------------------| 
A|---------------------------------------------------------------------------| 
D|---------------------------------------------------------------------------| 

(Several guitars now) 
(guitar 1 0:12) 
E|---------------------------------------------------------------------------| 
B|-/3--5-6-5-3-5-6-/10-10-/15~-----------------------------------------------| 
G|---------------------------------------------------------------------------| 
D|---------------------------------------------------------------------------| 
A|---------------------------------------------------------------------------| 
D|---------------------------------------------------------------------------| 

(guitar 3 0:12 - overlap) 
E|---------------------------------------------------------------------------| 
B|-/6-8-10-8-6-8-10-/15-15-/18~----------------------------------------------| 
G|---------------------------------------------------------------------------| 
D|---------------------------------------------------------------------------| 
A|---------------------------------------------------------------------------| 
D|---------------------------------------------------------------------------| 

(guitar 2 0:15 
E|---------------------------------------------------------------------------| 
B|-/3--5-6-5-3-5-6-18-17-15~-------------------------------------------------| 
G|---------------------------------------------------------------------------| 
D|---------------------------------------------------------------------------| 
A|---------------------------------------------------------------------------| 
D|---------------------------------------------------------------------------| 

(guitar 4 0:15 - overlap) 
E|------------------17-15-13~------------------------------------------------| 
B|-/6-8-10-8-6-8-10-----------~----------------------------------------------| 
G|---------------------------------------------------------------------------| 
D|---------------------------------------------------------------------------| 
A|---------------------------------------------------------------------------| 
D|---------------------------------------------------------------------------| 

(guitar 1 0:17) 
E|---------------------------------------------------------------------------| 
B|-/3--5-6-5-3-5-6-/10-10-/15~-----------------------------------------------| 
G|---------------------------------------------------------------------------| 
D|---------------------------------------------------------------------------| 
A|---------------------------------------------------------------------------| 
D|---------------------------------------------------------------------------| 

(guitar 3 0:17 - overlap) 
E|---------------------------------------------------------------------------| 
B|-/6-8-10-8-6-8-10-/15-15-/18~----------------------------------------------| 
G|---------------------------------------------------------------------------| 
D|---------------------------------------------------------------------------| 
A|---------------------------------------------------------------------------| 
D|---------------------------------------------------------------------------| 

(guitar 2 0:20) 
E|---------------------------------------------------------------------------| 
B|-/3--5-6-5-3-5-6-18-17-15^-------------------------------------------------| 
G|---------------------------------------------------------------------------| 
D|---------------------------------------------------------------------------| 
A|---------------------------------------------------------------------------| 
D|---------------------------------------------------------------------------| 

(guitar 4 0:20 - overlap) 
E|------------------17-15-13^------------------------------------------------| 
B|-/6-8-10-8-6-8-10----------------------------------------------------------| 
G|---------------------------------------------------------------------------| 
D|---------------------------------------------------------------------------| 
A|---------------------------------------------------------------------------| 
D|---------------------------------------------------------------------------| 

(guitar 1 0:23) 
E|---------------------------------------------------------------------------| 
B|-17-15---17----------------------------------------------------------------| 
G|-------15--15---15---------------------------------------------------------| 
D|--------------17--17-15-10/13~---------------------------------------------| 
A|---------------------------------------------------------------------------| 
D|---------------------------------------------------------------------------| 

There may be another harmony, but it also sounds like it was just doubled up so I don't know. 

(guitar 2 0:26) 
E|---------------------------------------------------------------------------| 
B|-17-15---17----------------------------------------------------------------| 
G|-------15--15---15---------------------------------------------------------| 
D|--------------17--17-15-10/13~---------------------------------------------| 
A|---------------------------------------------------------------------------| 
D|---------------------------------------------------------------------------| 

(guitar 1 0:28) 
E|---------------------------------------------------------------------------| 
B|-17-15---17----------------------------------------------------------------| 
G|-------15--15---15---------------------------------------------------------| 
D|--------------17--17-15-10/13~---------------------------------------------| 
A|---------------------------------------------------------------------------| 
D|---------------------------------------------------------------------------| 

(guitar 2 0:31) 
E|---------------------------------------------------------------------------| 
B|-17-15---17----------------------------------------------------------------| 
G|-------15--15---15---------------------------------------------------------| 
D|--------------17--17-15-10/13~---------------------------------------------| 
A|---------------------------------------------------------------------------| 
D|---------------------------------------------------------------------------| 

(guitar 5) (Rhythm comes in, goes whole Intro.) 
E|---------------------------------------------------------------------------| 
B|---------------------------------------------------------------------------| 
G|---------------------------------------------------------------------------| 
D|-7-(x12)-5-(x4)-3-(x12)-5-(x4)-7-(x12)-5-(x4)-3-(x16)-5-(x32)-8-(x32)------| 
A|-5-------3------1-------3------5-------3------1-------5-------8------------| 
D|------------------------------------------------------5-------8------------| 

(guitar 1 0:34) 
E|---------------------------------------------------------------------------| 
B|-/3--5-6-5-3-5-6-/10-10-/15~-----------------------------------------------| 
G|---------------------------------------------------------------------------| 
D|---------------------------------------------------------------------------| 
A|---------------------------------------------------------------------------| 
D|---------------------------------------------------------------------------| 

(guitar 3 0:34 - overlap) 
E|---------------------------------------------------------------------------| 
B|-/6-8-10-8-6-8-10-/15-15-/18~----------------------------------------------| 
G|---------------------------------------------------------------------------| 
D|---------------------------------------------------------------------------| 
A|---------------------------------------------------------------------------| 
D|---------------------------------------------------------------------------| 

(guitar 2 0:37) 
E|---------------------------------------------------------------------------| 
B|-/3--5-6-5-3-5-6-18-17-15~-------------------------------------------------| 
G|---------------------------------------------------------------------------| 
D|---------------------------------------------------------------------------| 
A|---------------------------------------------------------------------------| 
D|---------------------------------------------------------------------------| 

(guitar 4 0:37 - overlap) 
E|------------------17-15-13~------------------------------------------------| 
B|-/6-8-10-8-6-8-10-----------~----------------------------------------------| 
G|---------------------------------------------------------------------------| 
D|---------------------------------------------------------------------------| 
A|---------------------------------------------------------------------------| 
D|---------------------------------------------------------------------------| 

(guitar 1 0:39) 
E|---------------------------------------------------------------------------| 
B|-/3--5-6-5-3-5-6-/10-10-/15~-----------------------------------------------| 
G|---------------------------------------------------------------------------| 
D|---------------------------------------------------------------------------| 
A|---------------------------------------------------------------------------| 
D|---------------------------------------------------------------------------| 

(guitar 3 0:39 - overlap) 
E|---------------------------------------------------------------------------| 
B|-/6-8-10-8-6-8-10-/15-15-/18~----------------------------------------------| 
G|---------------------------------------------------------------------------| 
D|---------------------------------------------------------------------------| 
A|---------------------------------------------------------------------------| 
D|---------------------------------------------------------------------------| 

(guitar 2 0:42) 
E|---------------------------------------------------------------------------| 
B|-/3--5-6-5-3-5-6-18-17-15~-------------------------------------------------| 
G|---------------------------------------------------------------------------| 
D|---------------------------------------------------------------------------| 
A|---------------------------------------------------------------------------| 
D|---------------------------------------------------------------------------| 

(guitar 4 0:42 - overlap) 
E|------------------17-15-13~------------------------------------------------| 
B|-/6-8-10-8-6-8-10-----------~----------------------------------------------| 
G|---------------------------------------------------------------------------| 
D|---------------------------------------------------------------------------| 
A|---------------------------------------------------------------------------| 
D|---------------------------------------------------------------------------| 

(guitar 1 0:44) 
E|---------------------------------------------------------------------------| 
B|-17-15---17----------------------------------------------------------------| 
G|-------15--15---15---------------------------------------------------------| 
D|--------------17--17-15-10/13~---------------------------------------------| 
A|---------------------------------------------------------------------------| 
D|---------------------------------------------------------------------------| 

(guitar 2 0:47) 
E|---------------------------------------------------------------------------| 
B|-17-15---17----------------------------------------------------------------| 
G|-------15--15---15---------------------------------------------------------| 
D|--------------17--17-15-10/13~---------------------------------------------| 
A|---------------------------------------------------------------------------| 
D|---------------------------------------------------------------------------| 

(guitar 1 0:50) 
E|---------------------------------------------------------------------------| 
B|-17-15---17----------------------------------------------------------------| 
G|-------15--15---15---------------------------------------------------------| 
D|--------------17--17-15-10/13~---------------------------------------------| 
A|---------------------------------------------------------------------------| 
D|---------------------------------------------------------------------------| 

(guitar 2 0:52) 
E|---------------------------------------------------------------------------| 
B|-17-15---17----------------------------------------------------------------| 
G|-------15--15---15---------------------------------------------------------| 
D|--------------17--17-15-10\------------------------------------------------| 
A|---------------------------------------------------------------------------| 
D|---------------------------------------------------------------------------| 

(transition 1) 
(guitar 1 0:55 - 2x) 
E|---------------------------------------------------------------------------| 
B|---------------------------------------------------------------------------| 
G|---------------------------------------------------------------------------| 
D|--.--.--.--.-------.--.--.--.--.--.-----.-.-.-.-.-.-----.-.---.-.----------| 
A|-12-12-12-12-13---10-10-10 10-10-10-12--8-8-8-8-8-8-10--6-6-6-6-6-6-6------| 
D|---------------------------------------------------------------------------| 

(guitar 2 0:57/1:00) 
E|---------------------------------------------------------------------------| 
B|---------------------------------------------------------------------------| 
G|---------------------------------------------------------------------------| 
D|-0-0-0---------------------------------------------------------------------| 
A|-0-0-0---------------------------------------------------------------------| 
D|-0-0-0---------------------------------------------------------------------| 

(verse 1:01) 
(guitar 1 - 2x) 
E|---------------------------------------------------------------------------| 
B|---------------------------------------------------------------------------| 
G|---------------------------------------------------------------------------| 
D|-00000000-88888888-88888888-33333333-77777777-88888888-22222222-33333333---| 
A|-00000000-55555555-88888888-33333333-55555555-55555555-33333333-33333333---| 
D|-00000000-55555555-88888888-33333333-44444444-55555555-22222222-33333333---| 

(guitar 2 - 2x) 
E|---------------------------------------------------------------------------| 
B|---------------------------------------------------------------------------| 
G|-7--9-10-15---15-15-17--10-12-14--14--12--14-15--9--10-12-14---------------| 
D|-x--x-x--x----x--x--x---x--x--x---x---x---x--x---x--x--x--x----------------| 
A|-5--7-8--13---13-13-15--8--10-12--12--10--12-13--7--8--10-12---------------| 
D|---------------------------------------------------------------------------| 

(guitar 1) 
E|---------------------------------------------------------------------------| 
B|---------------------------------------------------------------------------| 
G|---------------------------------------------------------------------------| 
D|-88888888-11111111-22222222-33333333---------------------------------------| 
A|-88888888-11111111-33333333-33333333---------------------------------------| 
D|-88888888-11111111-22222222-33333333---------------------------------------| 

(guitar 2) 
E|---------------------------------------------------------------------------| 
B|---------------------------------------------------------------------------| 
G|-77777777-88888888-9999-10-12-10-10-10-10--14-14-14-14---------------------| 
D|-xxxxxxxx-xxxxxxxx-xxxx-x--x--x--x--x--x---x--x--x--x----------------------| 
A|-55555555-66666666-7777-8--10-8--8--8--8---12-12-12-12---------------------| 
D|---------------------------------------------------------------------------| 

(transition 2) 
(guitar 1) 
E|---------------------------------------------------------------------------| 
B|---------------------------------------------------------------------------| 
G|---------------------------------------------------------------------------| 
D|--.--.--.--.-------.--.--.--.--.--.-----.-.-.-.-.-.-.-.-.-.-.-.-.-.--.-----| 
A|-12-12-12-12-13---10-10-10 10-10-10-12--8-8-3-3-3-3-5-5-5-5-7-7-7-7-10~----| 
D|---------------------------------------------------------------------------| 

(Chorus 1:30) 
(guitar 1 - 2x) (second time, stop short after playing the "10" chord 7 times) 
E|---------------------------------------------------------------------------| 
B|---------------------------------------------------------------------------| 
G|--(x2)----------(x4)--------(x2)-------------------------------------------| 
D|-33333333---10-10-10-10--55555555-88888888-10-10-10-10-10-10-10-10---------| 
A|-33333333---10-10-10-10--55555555-88888888-10-10-10-10-10-10-10-10---------| 
D|-33333333---10-10-10-10--55555555-88888888-10-10-10-10-10-10-10-10---------| 

(guitar 2 - 2x) 
E|-65--6585-65--6585--13-12----13-12-15-12--13-12----13-12-15-15--15---------| 
B|---6--------6------------13--------------------13-----------------15-------| 
G|----5--------5-------------12--------------------12-----------------15-----| 
D|----------------------------------------------------------------------17---| 
A|---------------------------------------------------------------------------| 
D|---------------------------------------------------------------------------| 

E|-15--17-18--15------15--17-18--13----12---------13-12----13-12-15-12-------| 
B|---15---------15------15---------13----13------------13--------------------| 
G|----------------15-----------------15----12------------12------------------| 
D|------------------17-----------------------14------------------------------| 
A|---------------------------------------------15----------------------------| 
D|---------------------------------------------------------------------------| 

(intro - where Rhythm starts) 

(transition 1 x1 2:12) 

(verse 2:15) 
(2:25)iHow many hearts destined to break?/i Cut off early. Continue. 

(transition 2  2:42) 
(Chorus 2:44) 

(bridge pt. 1 3:06) 
(rhythm guitar 2x) 
E|----------------------------------------------------------------------------| 
B|----------------------------------------------------------------------------| 
G|---(x2)-----------(x2)---------------(x2)-----------------------------------| 
D|-33333333-10-10-10-10-10-10-10-10-55555555-88888888-10-10-10-10-10-10-10-10-| 
A|-33333333-10-10-10-10-10-10-10-10-55555555-88888888-10-10-10-10-10-10-10-10-| 
D|-33333333-10-10-10-10-10-10-10-10-55555555-88888888-10-10-10-10-10-10-10-10-| 

(guitar 1) 
E|--------15-13-13--------------------------------/13~----------/15~-13-17^--| 
B|-10-/13---------13-13--15-13-13~--------10-11-10-----/10-11-10-------------| 
G|---------------------------------------------------------------------------| 
D|---------------------------------------------------------------------------| 
A|---------------------------------------------------------------------------| 
D|---------------------------------------------------------------------------| 

(guitar 2) 
E|--------------------------------(18-20-18-17)-------------------------------| 
B|---10-10-11-10-/18-18-20-17-17~-----------------------/15b--------17-15-18--|b 
G|-/9-------------------------------------------10-12-10----10-12-10----------| 
D|----------------------------------------------------------------------------| 
A|----------------------------------------------------------------------------| 
D|----------------------------------------------------------------------------| 

(bridge pt. 2  3:28) 
There's so many guitars. I can't get one of the leads. Sorry :(. 
Rhythm (guitar x2 
E|----------------------------------------------------------------------------| 
B|----------------------------------------------------------------------------| 
G|---(x2)-----------(x2)---------------(x2)-----------------------------------| 
D|-33333333-10-10-10-10-10-10-10-10-55555555-88888888-10-10-10-10-10-10-10-10-| 
A|-33333333-10-10-10-10-10-10-10-10-55555555-88888888-10-10-10-10-10-10-10-10-| 
D|-33333333-10-10-10-10-10-10-10-10-55555555-88888888-10-10-10-10-10-10-10-10-| 

(guitar 1) 
E|---------------------------------------------------------------------------| 
B|---------------------------------------------------------------------------| 
G|-10-14--17~---9--12--17~---12--14--7~---7--10-17--15--13/15\14-------------| 
D|-x--x---x-----x--x---x-----x---x---x----x--x--x---x---x--x--x--------------| 
A|-8--12--15~---7--10--15~---10--12--5~---5--8--15--13--12/13\12-------------| 
D|---------------------------------------------------------------------------| 

(guitar 2 - 2x) 
E|---------------------------------------------------------------------------| 
B|---------------------------------------------------------------------------| 
G|---10--10--10--10--10------------------------------------------------------| 
D|----------------------------10-----10-----10-----10-----10------8--7--8--7-| 
A|-88--88--88--88--88--------------------------------------------------------| 
D|-----------------------10-10--10-10--10-10--10-10--10-10------55-55-55-55--| 

E|---------------------------------------------------------------------------| 
B|---------------------------------------------------------------------------| 
G|---------------------------------------------------------------------------| 
D|---8-----8--8-8------10-----10--10-----------------------------------------| 
A|---------------------------------------------------------------------------| 
D|-55----88-88-8--10-10--10-10--10-------------------------------------------| 

(bridge Pt 1. 3:49) 

(solo 4:10) 
(rhythm guitar 4x) 
E|----------------------------------------------------------------------------| 
B|----------------------------------------------------------------------------| 
G|---(x2)-----------(x2)---------------(x2)-----------------------------------| 
D|-33333333-10-10-10-10-10-10-10-10-55555555-88888888-10-10-10-10-10-10-10-10-| 
A|-33333333-10-10-10-10-10-10-10-10-55555555-88888888-10-10-10-10-10-10-10-10-| 
D|-33333333-10-10-10-10-10-10-10-10-55555555-88888888-10-10-10-10-10-10-10-10-| 

Too late to tab the solo, everyone's asleep. I'll give it a good try tomorrow! 

(Outro 4:53) 
(guitar 1) 
E|-20b-20b-17b-17b 13-----------10h12-13~------------------------------------| 
B|----------------------------13---------------------------------------------| 
G|--------------------10-12h13-----------------------------------------------| 
D|---------------------------------------------------------------------------| 
A|---------------------------------------------------------------------------| 
D|---------------------------------------------------------------------------| 

(guitar 2) 
E|---------------------------------------------------------------------------| 
B|---------------------------------------------------------------------------| 
G|---------------------------------------------------------------------------| 
D|--3/15\-3/15\-3/15\-3~-----------------------------------------------------| 
A|--3/15\-3/15\-3/15\-3~-----------------------------------------------------| 
D|--3/15\-3/15\-3/15\-3~-----------------------------------------------------| 
	  

Request the video "Lost"  -  Send "Lost" Ringtone to your Cell

there isn't a video lesson for this song

request
Full key step upFull key step up
Half key step upHalf key step up
Half key step downHalf key step down
Full key step downFull key step down
e-chords
Search
auto scroll beats size up size down change color hide chords drawings
tab show chords e-chords YouTube Clip e-chords hide all tabs e-chords go to top tab