Ariel Rot

home > Ariel Rot > chords

Una Casa Con Tres Balcones Tab

Ariel Rot

Difficulty: nolevelnolevel

by josep1

tuner correct add songbook print version text version rtf version e-mail
chordsukulelecavacokeyboardtabbassdrumsharmonicsflute Guitar Pro
chords

Una Casa Con Tres Balcones

(Ariel Rot)

	  Ahí va la intro y el solo del primer single de este genial disco de Ariel 
Disfrutenla, animense a mandar mas tabs de Ariel y sean benevolos es mi primera tab 

Intro 
                 
||----------------------------------------------------|| 
||----------------------------------------------------|| 
||----------------------------------------------------|| X 2 
||----5-4-3-2-2/4--2-----4-3----------3-4/5-5-4-2-----|| 
||--4------------------------3----3-4-----------------|| 
||----------------------------------------------------|| 


|----------------------------| 
|----------------------------| 
|----------------------------| 
|-3-5-6--5-6-7------3-5-6----| 
|----------------------------| 
|----------------------------| 


Solo 


|------------------------------------------------------------------------------------------| 
|-----6-8-8-5-8-9-8-6h7p6----/5-6-6/7-5-6-7/8-7-5------------------------------------------| 
|-6-8---------------------------------------------6------8-9-10-11-10-11-10-11-10-11-12-9--| 
|------------------------------------------------------------------------------------------| 
|------------------------------------------------------------------------------------------| 
|------------------------------------------------------------------------------------------| 


|---------------------------------------------------------------| 
|------------------------------------//8-10-8-10----7-8-10-8-7--| 
|-8-7-9-10-11-9-8-7-9-13-11-9-----------------------------------| 
|-----------------------------11--------------------------------| 
|---------------------------------------------------------------| 
|---------------------------------------------------------------| 


 en esta parte no se diferencian demasiado las notas pero esto queda bien 
|---------------------------| 
|-5/7-8-10-8-6-8-6-4-6-4----| 
|---------------------------| 
|---------------------------| 
|---------------------------| 
|---------------------------| 


                                                         ~~ 
|--------------|------------------------|-------------|--------------| 
|--------------|------------------------|-------------|--------------| 
|-7/9-9-7-9-10-|-12b14r12--9-11-9-11----|-8-8-8-7-8-9-|-10--7-9-7----| 
|--------------|------------------------|-------------|--------------| 
|--------------|------------------------|-------------|--------------| 
|--------------|------------------------|-------------|--------------|
	  

Request the video "Una Casa Con Tres Balcones"  -  Send "Una Casa Con Tres Balcones" Ringtone to your Cell

there isn't a video lesson for this song

request
Search
auto scroll beats size up size down change color hide chords drawings
tab show chords e-chords YouTube Clip e-chords hide all tabs e-chords go to top tab