Ariel Rot

home > Ariel Rot > chords

Swing Tab

Ariel Rot

Difficulty: nolevelnolevel

by paulRR_

tuner correct add songbook print version text version rtf version e-mail
chordsukulelecavacokeyboardtabbassdrumsharmonicsflute Guitar Pro
chords

Swing

(Ariel Rot)

	  Esta vez he colocado el punteillo de la canción con más feeling de Ariel, 
lo que pasa es que no me animo con los acordes,porque no acaban de sonarme 
bien(a ver si alguien se anima y se los saca) 



Intro 

||------------------------------------------------------------|| 
||---66---6----66-6-------------------------------------------|| 
||-7----7--7-6---6-6--55----55----555-755---------------87-5- || 
||-----------------------78---7-78---7---7—677777-677777--7-8-|| 
||------------------------------------------------------------|| 
||------------------------------------------------------------|| 


|--------------------------------| 
|--------------------------------| 
|---------------------5-5--------| 
|------5-7-----------------------| 
|-5-7-8----8-5-4-3-5-7-----------| 
|--------------------------------| 


El tiempo se estira 
se va deslizando la música gira 
te va hipnotizando... 
¡Swing! 
El ritmo camina 
se va sobre ruedas 
da vuelta en la esquina... 
¡Swing! 
Y se balancea...
	  

Request the video "Swing"  -  Send "Swing" Ringtone to your Cell

there isn't a video lesson for this song

request
Search
auto scroll beats size up size down change color hide chords drawings
tab show chords e-chords YouTube Clip e-chords hide all tabs e-chords go to top tab