Ariel Rot

home > Ariel Rot > chords

Dos De Corazones Tab

Ariel Rot

Difficulty: nolevelnolevel

by rodr_aeh

tuner correct add songbook print version text version rtf version e-mail
chordsukulelecavacokeyboardtabbassdrumsharmonicsflute Guitar Pro
chords

Dos De Corazones

	  Autor: Ariel Rot 


e |-----5---6-5-------------6-5---------------6-5-------------------------------- 
B |---6---6-----6-------5-8-----8-5-------5-8-----8-6-5-------6------------------ 
G |-7-------------7---6-------------6---6---------------6---6---7---7-7-7-7------ 
D |------------------------------------------------------------------------------ 
A |------------------------------------------------------------------------------ 
E |------------------------------------------------------------------------------ 

e |------------------------------------------------------------------------------ 
B |-----------5-5--------5h6h5---5-------------------5-5-------5h6h5------------- 
G |-7-7-7-6h7------7-6h7-------6---7-------7-7-7-6h7-----7-6h7-------6-7--------- 
D |----------------------------------7------------------------------------------- 
A |------------------------------------8----------------------------------------- 
E |------------------------------------------------------------------------------ 

e |-----5---6-5-------------6-5---5-5-5------------------------------------------ 
B |---6---6-----6-------5-8------------------------------------------------------ 
G |-7-------------7---6---------------------------------------------------------- 
D |------------------------------------------------------------------------------ 
A |------------------------------------------------------------------------------ 
E |------------------------------------------------------------------------------ 

Os mando mi primer tabulado, aunque creo que está bastante bien.  
Aún así, para cualquier duda, sugerencia o comentario, o para cambiar  
material sobre Ariel Rot, contactar con: 
					moseguello@hotmail.com
	  

Request the video "Dos De Corazones"  -  Send "Dos De Corazones" Ringtone to your Cell

there isn't a video lesson for this song

request
Search
auto scroll beats size up size down change color hide chords drawings
tab show chords e-chords YouTube Clip e-chords hide all tabs e-chords go to top tab