Argent

home > Argent > chords

Hold Your Head Up Tab

Argent

Difficulty: ExpertExpert

tuner correct add songbook print version text version rtf version e-mail
chordsukulelecavacokeyboardtabbassdrumsharmonicsflute Guitar Pro
chords

Hold Your Head Up

	    (SECTION ONE) Intro, also played during each verse. 
  
 |-------5---5---5---5-----|----3---3---3---3----| 
 |-------8---8---8---7-----|----5---5---5---3----| 
 |-------7---7---7---7-----|----5---5---5---5----| 
 |-------------------------|---------------------| 
 |-------------------------|---------------------| 
 |-------------------------|---------------------| 
  
 |-------5---5---5---5-----|----3---7---7---5----| 
 |-------8---8---8---7-----|----3---5---5---5----| 
 |-------7---7---7---7-----|----4---5---5---5----| 
 |-------------------------|---------------------| 
 |-------------------------|---------------------| 
 |-------------------------|---------------------| 
   
         (SECTION TWO) Chorus 
 |-------2--------------------6----|----2----------------------6---------- 
 |-------3--------------------6----|----3----------------------6---------- 
 |-------2--------------------5----|----2----------------------5---------- 
 |-------0--------------------0----|----0----------------------0---------- 
 |-------0--------------------0----|----0----------------------0---------- 
 |---------------------------------|-------------------------------------- 
         Hold your head up....Oh.......Hold your head up......Oh.... 
  
  |-------2-------------------6----|-----5----5----5----4------------------ 
 |-------3-------------------6----|-----5----5----5----5------------------ 
 |-------2-------------------5----|-----4----4----4----4------------------ 
 |-------0-------------------0----|--------------------------------------- 
 |-------0-------------------0----|--------------------------------------- 
 |--------------------------------|-----0----0----0----0------------------ 
         Hold your head up...Oh.........Hold your head high 
     
     
                 + LYRICS + 
     
    And if it's bad - don't let them get you down - You can take it. 
    And if it hurts - don't let them see you cry - You can make it 
     
    Hold your head up, oh, hold your head up, oh, hold your head up, oh 
    Hold your head high 
    Hold your head up, oh, hold your head up, oh, hold your head up, oh 
    Hold your head high 
     
    And if they stare - Just let them burn their eyes on you moving 
    And if they shout - Don't let it change a thing that you're doing 
     
    Hold your head up, oh, hold your head up, oh, hold your head up, oh 
    Hold your head high 
    Hold your head up, oh, hold your head up, oh, hold your head up, oh 
    Hold your head high 
      
    (Keyboard solo) 
  
    Hold your head up - (repeats several times) 
  
    And if they stare - just let them burn their eyes on you moving 
    And if they shout - don't let it change a thing that you're doing 
  
    (Chorus) 
    (Fade out) 

	  

Request the video "Hold Your Head Up"  -  Send "Hold Your Head Up" Ringtone to your Cell

there isn't a video lesson for this song

request
Search
auto scroll beats size up size down change color hide chords drawings
tab show chords e-chords YouTube Clip e-chords hide all tabs e-chords go to top tab