Alma D'Jem

home > Alma D'Jem > chords

Amar Novamente Tab

Alma D'Jem

Difficulty: nolevelnolevel

by Filho do Sol

tuner correct add songbook print version text version rtf version e-mail
chordsukulelecavacokeyboardtabbassdrumsharmonicsflute Guitar Pro
chords

Amar Novamente

	   
e|--9--x-9-----------------14-16-16-14-14-12------------------------| 
B|--10-x-10-------------14---------------------14-15-----14-15------| 
G|--11-x-11----------14------------------------------16--------16---| 
D|-------------14-16------------------------------------------------| 
A|------------------------------------------------------------------| 
E|------------------------------------------------------------------| 
 
 
e|------------12-12---16-----------------------------------| 
B|--14-15-------------17-----------------------------------| 
G|--------16-----------------14h16-14----------14h16-14----| 
D|------------------------------------16-14-16-------------| 
A|---------------------------------------------------------| 
E|---------------------------------------------------------| 
 
 
e|---------------14-16-16-14-14-12------------------------------------| 
B|------------14---------------------16bFull-14-----------------------| 
G|---------14-----------------------------------16-14-16b(1/2)-14-----| 
D|---14-16------------------------------------------------------------| 
A|--------------------------------------------------------------------| 
E|--------------------------------------------------------------------| 
 
 
e|---12-12-----17--16-----------------------------------------------| 
B|---------14-------------------------------------------------------| 
G|------------------------------------------------------------------| 
D|------------------------------------------------------------------| 
A|------------------------------------------------------------------| 
E|----------------------------------------- 

	  

Request the video "Amar Novamente"  -  Send "Amar Novamente" Ringtone to your Cell

there isn't a video lesson for this song

request
Search
auto scroll beats size up size down change color hide chords drawings
tab show chords e-chords YouTube Clip e-chords hide all tabs e-chords go to top tab