Alice in Chains

home > Alice in C... > chords

Nutshell Unplugged Tab

Alice in Chains

Difficulty: BeginnerBeginner

by icean11

tuner correct add songbook print version text version rtf version e-mail
chordsukulelecavacokeyboardtabbassdrumsharmonicsflute Guitar Pro
chords

Nutshell Unplugged

	  This is from the unplugged set they did in 96'. 
I'm pretty sure it's perfect so no worries. 

Em tuning (half step down) 

It goes: 


Cadd9                   Em7     G D 

We ... chase misprinted lies, 

Cadd9                   Em7     G D 

We ... face the path of time. 

Cadd9                                            Em7    G D 

And yet I fight, and yet I fight this battle all alone, 

Cadd9                              Em7      G D 

No one to cry to, no place to call home.. 

-- 
and then Jerry comes in with this fill/interlude: 
-- 

--12---------------------------------10------------12------------ 
----12---------------------------------10------------12---------- 
------12-11-9-------------7-9-10-9-------7-------------12-11-9--- 
--------------9-10---9-10-----------------7-5-4----------------9- 
----------------------------------------------------------------- 
----------------------------------------------------------------- 

---------------------------10------------ 
---------------7-8-787--7----10---------- 
------------7-9--------9--9-----7-------- 
--10---9-10-----------------------7-5-4-- 
----------------------------------------- 
----------------------------------------- 

Then he returns to the Cadd9, Em7, G and D chords for: 

My gift of self is raped 
My privacy is raked 
And yet I find, and yet I find repeating in my head 
If I can't be my own, I'd feel better dead 

Then Jerry goes to another fill while Lanye sings "Ooooh" 

--12----------------10-----------12----------------10--------- 
----12----------------10-----------12----------------10------- 
------12-11-9-----------7------------12-11-9-----------7------ 
--------------9-----------7-5-4--------------9-----------7-5-4 
-------------------------------------------------------------- 
-------------------------------------------------------------- 

---------------- 
---------------- 
--0-4----------- 
------5-4-0-2--- 
---------------- 
---------------- 

Then there is a pretty lengthy lead that I will put in another  
tab. The best way to get the strumming pattern and timing down 
in this one is to just listen to the song. I can't really help  
you much there. Suggestions welcome!! 

               Love & Lipstick -- Michelle 


	  

Request the video "Nutshell Unplugged"  -  Send "Nutshell Unplugged" Ringtone to your Cell

there isn't a video lesson for this song

request
Full key step upFull key step up
Half key step upHalf key step up
Half key step downHalf key step down
Full key step downFull key step down
Search
auto scroll beats size up size down change color hide chords drawings
tab show chords e-chords YouTube Clip e-chords hide all tabs e-chords go to top tab