Alci Acosta

home > Alci Acost... > chords

Traicionera Tab

Alci Acosta

Difficulty: nolevelnolevel

by deivcavalcanti

tuner correct add songbook print version text version rtf version e-mail
chordsukulelecavacokeyboardtabbassdrumsharmonicsflute Guitar Pro
chords

Traicionera

	  Esta es la intro de la canción traicionera esta 100% bien Claro la 
original es en piano y yo la transcribí para guitarra espero que 
les guste. 
Es con afinación Standard 

--0--3--1-------------------------------------------------------------- 
-----------1--3--6--4-----3-1-----3-1---------------------------------- 
-----------------------3------3-1-----3-1--0--3--1--------------------- 
----------------------------------------------------------------------- 
----------------------------------------------------------------------- 
----------------------------------------------------------------------- 


--0--3--1-------------------------------------------------------------- 
-----------1--3--6--4-----3-1-----3-1------1--3--4--------------------- 
-----------------------3------3-1-----3-3------------------------------ 
----------------------------------------------------------------------- 
----------------------------------------------------------------------- 
----------------------------------------------------------------------- 

Luego  se repite esto otra vez 

--0--3--1-------------------------------------------------------------- 
-----------1--3--6--4-----3-1-----3-1---------------------------------- 
-----------------------3------3-1-----3-1--0--3--1--------------------- 
----------------------------------------------------------------------- 
----------------------------------------------------------------------- 
----------------------------------------------------------------------- 


--0--3--1-------------------------------------------------------------- 
-----------1--3--6--4-----3-1-----3-1------1--3--4--------------------- 
-----------------------3------3-1-----3-3------------------------------ 
----------------------------------------------------------------------- 
----------------------------------------------------------------------- 
----------------------------------------------------------------------- 


Cualquier cosa a Mi mail Pedro_v888@hotmail.com orgullosamente cuencano
	  

Request the video "Traicionera"  -  Send "Traicionera" Ringtone to your Cell

there isn't a video lesson for this song

request
Search
auto scroll beats size up size down change color hide chords drawings
tab show chords e-chords YouTube Clip e-chords hide all tabs e-chords go to top tab