Alas de Aguila

home > Alas de Ag... > chords

Adorar Al Cordero Santo Tab

Alas de Aguila

Difficulty: IntermediateIntermediate

tuner correct add songbook print version text version rtf version e-mail
chordsukulelecavacokeyboardtabbassdrumsharmonicsflute Guitar Pro
chords

Adorar Al Cordero Santo

	  Q pex people 
Escuchen bien la rola para los tiempos 




1:57                                           2:06 

e |------------------------------------------|----------------------------| 
B |----------------------------8--8-12-8-----|----------------------------| 
G |--------10-------------------10------12b--|------10--------------------| 
D |--10/12---12b--10-8-8b-7b-----------------|-10h12--12-10-(x3)----------| 
A |---8/10-----------------------------------|----------------------------| 
E |------------------------------------------|----------------------------| 


                      2:18 


e |---------------|-8/10-10-8----10b--------------------------------------| 
B |---------------|-7/-9-----10b------------------------------------------| 
G |---------------|-------------------------------------------------------| 
D |--10h12-10--12-|-------------------------------------------------------| 
A |----------12---|-------------------------------------------------------| 
E |---------------|-------------------------------------------------------| 

2:28                    2:39                 2:44     3:02 

e |-------------------|--------------------|-8/10---|-10b-8b-5b-8b-8------| 
B |-------------------|--------------------|-----10-|--9b-7b-4b-7b--11-10-| 
G |------10-----------|-----------7-5--5h7-|--------|---------------------| 
D |-10h12--12-10-(x2)-|-10/12-10-7---7b----|--------|---------------------| 
A |-------------------|--------------------|--------|---------------------| 
E |-------------------|--------------------|--------|---------------------| 

3:15 

e |-----------------------------------------------------------------------| 
B |-----------------------------------------------------------------------| 
G |------10/12/10---------------------------------------------------------| 
D |-10h12-----------------------------------------------------------------| 
A |-----------------------------------------------------------------------| 
E |-----------------------------------------------------------------------| 

3:24 

e |-----------------------------------------------------------------------| 
B |---------------------------------10/8-10-10/12-10----------------------| 
G |-------12b-12b/14------12--------------9--9/11---12b-------------------| 
D |-12-12-12b-12b/14-12h14--14-12-12--------------------------------------| 
A |-10-10-------------------------10--------------------------------------| 
E |-----------------------------------------------------------------------| 

       3:30                     3:35 

e |------------------------|----------------------------------------------| 
B |------------------------|-10h12-10b-7h8-7-8-7--------------------------| 
G |----12b------12---------|----------------7-----------------------------| 
D |-12-12b-12h14--14-12----|----------------------------------------------| 
A |-10---------------------|----------------------------------------------| 
E |------------------------|----------------------------------------------| 

3:40                             3:50      4:02 

e |----------------------------|---------|--------------3-------------2---| 
B |-15-14-15-14----------------|-15-14---|----------------0--------2------| 
G |------------14b-12/11/12-14-|------14-|-----4--------------------------| 
D |----------------------------|---------|---5---5--------------1---------| 
A |----------------------------|---------|-3----------2------2------------| 
E |----------------------------|---------|---------3----------------------| 

     4:13            4:24 

e |-----------|-----------------------------------------------------------| 
B |-12-15-13--|---------------------10--10-12-10--------------------------| 
G |-11-14-12--|------12---------14b---12--------12b-----------------------| 
D |-----------|-12/14--14b-12-14------------------------------------------| 
A |-----------|-10/12-----------------------------------------------------| 
E |-----------|-----------------------------------------------------------| 


         4:31 

e |-----------------------------------------------------------------------| 
B |-------------------------10-8-10/12-10-8b------------------------------| 
G |-------------9h10/12-9-7--9-7--9/11--9-7b------------------------------| 
D |-12-x-12-x-12----------------------------------------------------------| 
A |-10-x-10-x-10----------------------------------------------------------| 
E |-----------------------------------------------------------------------| 




Dudas y comentarios favor de enviarlos al mail 
Thanx 


	  

Request the video "Adorar Al Cordero Santo"  -  Send "Adorar Al Cordero Santo" Ringtone to your Cell

there isn't a video lesson for this song

request
e-chords
Search
auto scroll beats size up size down change color hide chords drawings
tab show chords e-chords YouTube Clip e-chords hide all tabs e-chords go to top tab