30 Seconds To Mars

home > 30 Seconds... > chords

From Yesterday Tab

30 Seconds To Mars

Difficulty: ExpertExpert

by espoleta1000

tuner correct add songbook print version text version rtf version e-mail
chordsukulelecavacokeyboardtabbassdrumsharmonicsflute Guitar Pro
chords

From Yesterday

	  Standard Tuning 

Intro: (Delay/Chorus type of effect) 
Piano fades into guitar (0:18) (Repetir até o Chorus) 
e|----------|----------------------------------------------------| 
B|--p-------|----------------------------------------------------| 
G|--i-------|----------------------------------------------------| 
D|--a--Then-|-----8----8----8----8----8----8----8----8----8----8-| 
A|--n-------|--666--666--666--666--666--555--555--555--555--555--| 
E|--o-------|----------------------------------------------------| 

Chorus:(1:01) 2x 
         A#5               F5              G5               D#5 
e|---------------------------------------------------------------------| 
B|---------------------------------------------------------------------| 
G|----------------------------------------------------8888888888888888-| 
D|-8888888888888888-3333333333333333-5555555555555555-8888888888888888-| 
A|-8888888888888888-3333333333333333-5555555555555555-6666666666666666-| 
E|-6666666666666666-1111111111111111-3333333333333333------------------| 

Verse (1:31) 2x 
e|----------------------------------------------------| 
B|----------------------------------------------------| 
G|----------------------------------------------------| 
D|-----8----8----8----8----8----8----8----8----8----8-| 
A|--666--666--666--666--666--555--555--555--555--555--| 
E|----------------------------------------------------| 

Depois do  Verse (1:45) 2x 
e|-------------------------------------------------| 
B|-------------------------------------------------| 
G|-------------------------------------------------| 
D|-------------------------------------------------| 
A|-6-6-6-6-6-6--6-6-6-6-6~-5-5-5-5-5-5--5-5-5-5-6~-| 
E|-------------------------------------------------| 
PM . . . . . .  . . . .    . . . . . .  . . . . 

Chorus (2:00) 
         A#5               F5              G5               D#5 
e|---------------------------------------------------------------------| 
B|---------------------------------------------------------------------| 
G|----------------------------------------------------8888888888888888-| 
D|-8888888888888888-3333333333333333-5555555555555555-8888888888888888-| 
A|-8888888888888888-3333333333333333-5555555555555555-6666666666666666-| 
E|-6666666666666666-1111111111111111-3333333333333333------------------| 

Bridge (2:28) 
     F5 
E|-------------------------------------------------| 
B|-------------------------------------------------| 
G|-10-10-10-10-10-10-10-10-10-10-10-10-10-10-10-10-| 
D|--x-—x--x—-x--x--x--x--x--x--x--x--x--x--x--x--x-| 
A|--8—-8--8—-8--8--8--8--8--8--8--8--8--8--8--8--8-| 
E|-------------------------------------------------| 

E|---------------------------------------------| 
B|---------------------------------------------| 
G|------7-7-8-10—-7-7-7-7--8-10-------8-8—-7-7-| 
D|-8-8—-x-x-x-x---x-x-x-x--x-x---8-8—-x-x—-x-x-| 
A|-8-8—-5-5-6-8---5-5-5-5--6-8---8-8—-6-6—-5-5-| 
E|-6-6---------------------------6-6-----------| 
                                             3x| 

E|------------------------------------------------------| 
B|------------------------------------------------------| 
G|------7-7--8-10—10-10-10-10-10-10-10---12-12-12-12-12-| 
D|-8-8—-x-x--x-x---x--x--x--x--x--x--x----x--x--x--x--x-| 
A|-8-8—-5-5--6-8---8--8--8--8--8--8--8---10-10-10-10-10-| 
E|-6-6--------------------------------------------------| 

Chorus (3:00) 4x 
         A#5               F5              G5               D#5 
e|---------------------------------------------------------------------| 
B|---------------------------------------------------------------------| 
G|----------------------------------------------------8888888888888888-| 
D|-8888888888888888-3333333333333333-5555555555555555-8888888888888888-| 
A|-8888888888888888-3333333333333333-5555555555555555-6666666666666666-| 
E|-6666666666666666-1111111111111111-3333333333333333------------------| 

          F5 
E|--------------------------------------------------| 
B|--------------------------------------------------| 
G|-—10-10-10-10-10-10-10-10-10-10-10-10-10-10-10-10-| 
D|-—10-10-10-10-10-10-10-10-10-10-10-10-10-10-10-10-| 
A|---8--8—-8—-8—-8--8--8--8—-8--8--8--8--8--8--8--8-| 
E|--------------------------------------------------| 

Outro (4:00) 
e|------------------------------------| 
B|------------------------------------| 
G|------7-7--8-10—-7-7-7-7--8-10------| 
D|-8-8—-x-x--x-x---x-x-x-x--x-x---8-8-| 
A|-8-8—-5-5--6-8---5-5-5-5--6-8---8-8-| 
E|-6-6----------------------------6-6-| 
	  

Request the video "From Yesterday"  -  Send "From Yesterday" Ringtone to your Cell

there isn't a video lesson for this song

request
Full key step upFull key step up
Half key step upHalf key step up
Half key step downHalf key step down
Full key step downFull key step down
Search
auto scroll beats size up size down change color hide chords drawings
tab show chords e-chords YouTube Clip e-chords hide all tabs e-chords go to top tab