3 Doors Down

home > 3 Doors Do... > chords

When I'm gone Tab

3 Doors Down

Difficulty: ExpertExpert

by verinha

tuner correct add songbook print version text version rtf version e-mail
chordsukulelecavacokeyboardtabbassdrummharmonicsflute Guitar Pro
chords

When I'm gone

	      Am                            C         G 
e|------------------------------------------3---| 
B|--------0h1-----1p0---0h1-----------0h1---3---| 
G|------2-----2-------2-----2-------------0-0---| 
D|----2---------2-------------------2-------0---| 
A|--0-------------------------0-2-3---------2---| 
E|------------------------------------------3---| 
Intro Pt. 1 
 
    Am                            C         G 
e|------------------------------------------3---| 
B|--------0h1-----3p1---0h1-----------0h1---3---| 
G|------2-----2-------2-----2-------------0-0---| 
D|----2---------2-------------------2-------0---| 
A|--0-------------------------0-2-3---------2---| 
E|------------------------------------------3---| 
Intro Pt. 2 
 
    Am         C  G 
e|--0----------0--3---| 
B|--1----------1--3---| 
G|--2----------0--0---| 
D|--2----------2--0---| 
A|--0---0-2-3--3--2---| 
E|----------------3---| 
There's a... may never see... (Verse) 
 
    Am              Am 
e|----------------------------------| 
B|--------0h1---3---------0h1---0---| 
G|------2---------------2-----------| 
D|----2---------------2-------------| 
A|--0---------0-----0---------0-----| 
E|----------------------------------| 
Maybe I'm just blind... 
 
e|----------------------------------| 
B|--------0h1---3---------0h1---0---| 
G|------2---------------2-----------| 
D|----2---------------2-------------| 
A|--0---------0-----0---------0-----| 
E|----------------------------------| 
Maybe I'm just blind... 
              v ^    v ^ 
e|---------------------------------------------------------| 
B|---------------------------------------------------------| 
G|------------2-2-xx-2-2-xx----------5-5-xx----------------| 
D|------------2-2-xx-2-2-xx----------5-5-xx-5-5-xx---------| 
A|---2h3p2p0--0-0-xx-0-0-xx-2h3p2p0--7-7-xx-5-5-xx-2h3p2p0-| 
E|------------------------------------------3-3-xx---------| 
So hold me when I'm here... (Chorus) 
 
Guitar 1                   Guitar 2    		      Guitar 3 
e|-----------------------| e|-----------------------| e|-----------------------| 
B|-----------------------| B|-----------------------| B|-----------------------| 
G|-----------------------| G|-----------------------| G|-----------------------| 
D|----7----7/9/10-xx-5---| D|----7----7/9/10-xx-5---| D|-----------9h10--------| 
A|----------------xx-----| A|----7----7/9/10-xx-3---| A|--10h12-10-------10----| 
E|----5----5/7/8--xx-3---| E|----5----5/7/8--xx-3---| E|-----------------------| 
 
Guitar 1                   Guitar 2    		      Guitar 3 
e|-----------------------| e|-----------------------| e|------------------------| 
B|-----------------------| B|-----------------------| B|------------------------| 
G|-----------------------| G|-----------------------| G|------------------------| 
D|----7----7/9/10-xx-5---| D|----7----7/9/10-xx-5---| D|-------9h10-------------| 
A|----------------xx-----| A|----7----7/9/10-xx-3---| A|--/12-------12p10----10-| 
E|----5----5/7/8--xx-3---| E|----5----5/7/8--xx-3---| E|------------------12----| 
After 1st Chorus                                                          pm 
 
e|-----------------------------------| 
B|-----------------------------------| 
G|-----------------------------------| 
D|--7-xx-9/10-xx-10/12-xx-12/14/12---| 
A|--7-xx-9/10-xx-10/12-xx-12/14/12---| 
E|--5-xx-7/8--xx--8/10-xx-10/12/10---| 
Breakdown Pt. 1 
 
e|-------------------------------------| 
B|-------------------------------------| 
G|-------------------------------------| 
D|--7-xx-9/10-xx-10/12-xx-5-4-5--7*----| 
A|--7-xx-9/10-xx-10/12-xx-5-4-5--7*----| 
E|--5-xx-7/8--xx--8/10-xx-3-2-3--5*----| 
Breakdown Pt. 2           pm... 
 
START OF SOLO........ 
e|---------------------------------------------| 
B|---------------------------------------------| 
G|---------------------------------------------| 
D|---------------------------------------------| 
A|--/12-12-12p10-10h12--12p10----10------------| 
E|----------------------------12----12-11-10---| 
 
e|-------------------------------------------------| 
B|-------------------------------------------------| 
G|-------------------------------------------------| 
D|--------------------------------------10---------| 
A|--15-15--0--0-3-0-0---0---0-/12-12-12----12-12---| 
E|--------------------3---3------------------------| 
 
e|----------------------------------------------| 
B|----------------------------------------------| 
G|----------------------------------------------| 
D|-----------9h10p9----9-----9h10h9----12-------| 
A|--12-12-12--------12---12~--------12----10~---| 
E|----------------------------------------------| 
 
e|----------------------------------------| 
B|----------------------------------------| 
G|-----------12-12------------------------| 
D|--12h14-14-------14-14-14-14-14-14-14---| 
A|----------------------------------------| 
E|----------------------------------------| 
 
e|----------------------------------------------------| 
B|----------------------------------------------------| 
G|--12-12-12-12-12-12-12-12-16-16-16-16-16-16-16-16---| 
D|----------------------------------------------------| 
A|----------------------------------------------------| 
E|----------------------------------------------------| 
 
e|------------15h17-17*---| 
B|---17-17-17-------------| 
G|------------------------| 
D|------------------------| 
A|------------------------| 
E|------------------------| 
...........END OF SOLO 
**GUITAR 2 PLAYS CHORUS AS BACKUP** 
 
Right after the last chorus... 
Guitar 1                   Guitar 2    		      
e|-----------------------| e|-----------------------| 
B|-----------------------| B|-----------------------| 
G|-----------------------| G|-----------------------| 
D|----7----7/9/10-xx-5---| D|----7----7/9/10-xx-5---| 
A|----------------xx-----| A|----7----7/9/10-xx-3---| 
E|----5----5/7/8--xx-3---| E|----5----5/7/8--xx-3---| 
 
Guitar 2 (Guitar 1 plays the same as above) 
e|----------------------------| 
B|----------------------------| 
G|----------------------------| 
D|----7----7/9/10-xx-5---7*---| 
A|----7----7/9/10-xx-3---7*---| 
E|----5----5/7/8--xx-3---5*---| 
End of song. 
 
* = Let ring 
v = Downstroke 
^ = Upstroke 
 
There's a mellow world inside of me 
That you may never see 
There's secrets in this life that I can't hide 
Somewhere in this darkness  
There's a light that I can't find 
Maybe it's too far away 
Or maybe I'm just blind 
 
  Hold me when I'm here 
  Love me when I'm wrong 
  Hold me when I'm scared 
  And love me when I'm gone 
 
  Everything I am 
  Is everything you need 
  I'm possibly the one you wanted me to be 
 
  I'll never let you down 
  Even if I could 
  I'd give up everything 
  If only for your good 
 
  So hold me when I'm here 
  Love me when I'm wrong 
  Hold me when I'm scared 
  I won't always be there 
  So love me when I'm gone 
 
When your education X-ray 
Can not see under my skin 
I won't tell you a damn thing 
That I could not tell my friends 
I'm roaming in this darkness 
I'm alive but I'm alone 
Part of me is fighting this 
But part of me is gone 
---------------------------------------------- 
============================================================== 
Versão 2 
-======- 
 
Intro (Riff 1): 
 
Riff 1 
E --------------------------------------------0--------------- 
B ---------0h1-----1p0---0h1------------0h1---3--------------- 
G -------2-----2-------2-----2--------0-----0-0--------------- 
D -----2---------2-------------2----2---------2--------------- 
A --0-----------------------------3-----------3--------------- 
E ------------------------------------------------------------ 
 
Riff 1 (cont) 
E ------------------------------------------------0----------- 
B ---------0h1-----3-----1-----0------------0h1---3--3h1h0---- 
G -------2-----2-----2-----2-----2--------0-----0-0----------- 
D -----2---------2-----2-----2-----2----2---------2----------- 
A --0---------------------------------3-----------3----------- 
E ------------------------------------------------------------ 
 
Riff 2 
E --0--0--------------0--0--- 
B --0----0------------1--3--- 
G --0------0----------0--0--- 
D --2---------------2-2--2--- 
A --2---------0-2-3---3--3--- 
E --0------------------------ 
 
(Riff 2) 4x 
There's another world inside of me that you may never see. 
There's secrets in this life that I can't hide. 
Somewhere in this darkness there's a life that I can't find. 
Maybe it's too far away or maybe I'm just  
 
Riff 3 
E -------------0-------------0-- 
B --------0h1--3--------0h1--0-- 
G ------2------2------2------2-- 
D ----2--------2----2--------2-- 
A --0----------0--0----------0-- 
E ------------------------------ 
 
(Riff 3) 2x 
blind, maybe I'm just blind. 
 
Riff 4 
E ------------------------------------------------------- 
B ------------------------------------------------------- 
G --4-5-4---2--2-x-x-2--2-x-x-4-5-4---7--7-x-x----------- 
D --4-5-4-2-2--2-x-x-2--2-x-x-4-5-4-2-7--7-x-x-5--5-x-x-- 
A --2-3-2-2-0--0-x-x-0--0-x-x-2-3-2-2-5--5-x-x-5--5-x-x-- 
E --------0-------------------------0----------3--3-x-x-- 
 
(Riff 4) 4x 
So hold me when I'm here right me when I'm wrong. 
Hold me when I'm scared and love me when I'm gone. 
Everything I am and everything in me 
Wants to be the one you wanted me to be. 
I'll never let you down even if I could. 
I'd give up everything if only for your good. 
So hold me when I'm here right me when I'm wrong. 
You can hold me when I'm scared but you won't always be there, 
 
Riff 5 
E ---------------------- 
B ---------------------- 
G --2-------5--5-x-x---- 
D --2-------5--5-x-x-5-- 
A --0---0-2-3--3-x-x-5-- 
E -------------------3-- 
 
(Riff 5) 2x 
So love me when I'm gone, love me when I'm gone 
 
(Riff 2) 4x 
When your education x-ray cannot see under my skin. 
I won't tell you a damn thing that I could not tell my friends. 
Now roaming through this darkness I'm alive but I'm alone. 
Part of me is fighting this but part of me is gone. 
 
Riff 4 4x 
So hold me when I'm here right me when I'm wrong. 
Hold me when I'm scared and love me when I'm gone. 
Everything I am and everything in me. 
Wants to be the one you wanted me to be, 
I'll never let you down even if I could. 
I'd give up everything if only for your good. 
So hold me when I'm here right me when I'm wrong 
You can hold me when I'm scared, you won't always be there, 
So love me when I'm gone. 
 
Bridge (Riff 6) 2x: 
 
Riff 6 
E ---------------------------------------------------- 
B ---------------------------------------------------- 
G --2-x-x-4-5-x-x-5-7-x-x-7-9-7--2-x-x-4-5-x-x-------- 
D --2-x-x-4-5-x-x-5-7-x-x-7-9-7--2-x-x-4-5-x-x-5-4-5-- 
A --0-x-x-2-3-x-x-3-5-x-x-5-7-5--0-x-x-2-3-x-x-5-4-5-- 
E ---------------------------------------------3-2-3-- 
 
(Riff 3) 2x 
 
(Solo) tocado no (Riff 4) 4x 
 
(Riff 4) 4x 
So hold me when I'm here right me when I'm wrong. 
Hold me when I'm scared and love me when I'm gone. 
Everything I am and everything in me, 
Wants to be the one you wanted me to be. 
I'll never let you down even if I could. 
I'd give up everything if only for your good. 
So hold me when I'm here right me when I'm wrong. 
You can hold me when I'm scared, you won't always be there. 
 
(Riff 5) 4x 
So love me when I'm gone, love me when I'm gone. 
love me when I'm gone, When I'm gone, When I'm gone, When I'm gone. 
	  

Request the video "When I'm gone"  -  Send "When I'm gone" Ringtone to your Cell

there isn't a video lesson for this song

request
Full key step upFull key step up
Half key step upHalf key step up
Half key step downHalf key step down
Full key step downFull key step down
Search
auto scroll beats size up size down change color hide chords drawings
tab show chords e-chords YouTube Clip e-chords hide all tabs e-chords go to top tab