3 Doors Down

home > 3 Doors Do... > chords

I'm Already Here Tab

3 Doors Down

Difficulty: nolevelnolevel

by aman_claudino

tuner correct add songbook print version text version rtf version e-mail
chordsukulelecavacokeyboardtabbassdrumsharmonicsflute Guitar Pro
chords

I'm Already Here

	  
Introdução 
 
e|------------------------------------| 
B|---5---5-5--8-7-5---------------5---| 
G|------------------5-5--4-4-5-7------| 
D|------------------------------------| 
A|---7--7-7---7-7-7-7--7--5-5-5---7---| 
E|------------------------------------| 



 
e|----------------5-------------------| 
B|---5---5-5--8-7-----------------5---| 
G|------------------5-5--4-4-5-7------| 
D|------------------------------------| 
A|---7--7-7---7-7-7-7--7--5-5-5---7---| 
E|------------------------------------|  
	  

Request the video "I'm Already Here"  -  Send "I'm Already Here" Ringtone to your Cell

there isn't a video lesson for this song

request
Search
auto scroll beats size up size down change color hide chords drawings
tab show chords e-chords YouTube Clip e-chords hide all tabs e-chords go to top tab