3 Doors Down

home > 3 Doors Do... > chords

I Woke Up In London Tab

3 Doors Down

Difficulty: nolevelnolevel

by jov-correa

tuner correct add songbook print version text version rtf version e-mail
chordsukulelecavacokeyboardtabbassdrumsharmonicsflute Guitar Pro
chords

I Woke Up In London

	  
I've seen a couple that are pretty close but I think this is closer. 
Listen to the song to get the correct struming patterns.  Hope you enjoy! 

Intro: 
      Em                         Em                      Em 
|-----------------------------------------------------------------------| 
|--------1---0------------------1---0------------------1---0------------| 
|----------------2h4-0------------------2-2h4------------------2h4-0----| 
|------2----------------------2----------------------2------------------| 
|----2----------------------2----------------------2--------------------| 
|--0-------0---0----------0-------0---0----------0-------0---0----------| 

verse 1: 

I woke up today in London... 
     Em       G         Am               Em 
|-------------------------------------------------------| 
|-------------0----------0------------------------------| 
|----0-------0----------2-2----------0----0----------0--| 
|---2-------0--0-------2----------0h2----2--------0h2---| 
|--2---------------2b-0----0---0h2------2--2---0h2------| 
|-0--------3----3---------------------0-----0-----------| 

All I could think about... 
     Em       G         Am               Em 
|-------------------------------------------------------| 
|-------------0----------0------------------------------| 
|----0--0----0----------2-2----------0----0----------0--| 
|---2-------0--0-------2----------0h2----2--------0h2---| 
|--2--2------------2b-0----0---0h2------2--2---0h2------| 
|-0----0---3----3---------------------0-----0-----------| 

If this keeps me away... 
     Em         C            D          Em 
|-------------------------0--2--3----------------------| 
|-------------1--0-------3--3--3-----------------------| 
|----0--0----0-0--0-2---2--2--2------0-----------0-----| 
|---2-------2---2--2---0------------2---------0h2------| 
|--2--2----3-----------------------2--2----0h2---------| 
|-0----0--------------------------0----0---------------| 

You've got to understand... 
     Em         C            D          Em 
|-------------------------0--2--3----------------------| 
|-------------1--0-------3--3--3-----------------------| 
|----0--0----0-0--0-2---2--2--2------0-----------0-----| 
|---2-------2---2--2---0------------2---------0h2------| 
|--2--2----3-----------------------2--2----0h2---------| 
|-0----0--------------------------0----0---------------| 

Chorus 1: 

When the night falls in... 
     Em        C (strum)   Am (strum)   Em (strum) 
|---------------------------------------------------------------| 
|--------------1-----------1------------------------------------| 
|----0--0------0-----------2------------0------0-----------0----| 
|---2----------2-----------2------------2-----2---------0h2-----| 
|--2--2--------3------------------------2----2--2----0h2--------| 
|-0----0--------------------------------0---0----0--------------| 

I'll use your light... 
     Em        C (strum)   D (strum) 
|--------------------------2------------------------------------| 
|--------------1-----------3------------------------------------| 
|----0--0------0-----------2------------------------------------| 
|---2----------2------------------------------------------------| 
|--2--2--------3------------------------------------------------| 
|-0----0--------------------------------------------------------| 

      Em                         Em                      Em 
|-----------------------------------------------------------------------| 
|--------1---0------------------1---0------------------1---0------------| 
|----------------2h4-0------------------2-2h4------------------2h4-0----| 
|------2----------------------2----------------------2------------------| 
|----2----------------------2----------------------2--------------------| 
|--0-------0---0----------0-------0---0----------0-------0---0----------| 

verse 2: 

Well LA's getting kinda... 
     Em       G         Am               Em 
|-------------------------------------------------------| 
|-------------0----------0------------------------------| 
|----0-------0----------2-2----------0----0----------0--| 
|---2-------0--0-------2----------0h2----2--------0h2---| 
|--2---------------2b-0----0---0h2------2--2---0h2------| 
|-0--------3----3---------------------0-----0-----------| 

I keep my head... 
     Em       G         Am               Em 
|-------------------------------------------------------| 
|-------------0----------0------------------------------| 
|----0--0----0----------2-2----------0----0----------0--| 
|---2-------0--0-------2----------0h2----2--------0h2---| 
|--2--2------------2b-0----0---0h2------2--2---0h2------| 
|-0----0---3----3---------------------0-----0-----------| 

And All these days... 
(Strum) 
Em   C   Am   Em 

I need your love... 
(strum) 
Em   C   D    Em 

Chorus 2: 

When the Night... 
(strum) 
Em   C   Am   Em 

I'll use your light 
(strum) 
Em   C   D 

Solo Intro: 
Em 

Solo: 
      C          Am                  Em 
|-------------------------------------------------------------------| 
|--------------------7h8/10--10/12------------------------10-10/12--| 
|----------------7h9-----------------9-9-9/11-11-11/12-12-----------| 
|---------5h7/9-----------------------------------------------------| 
|-----5h7-----------------------------------------------------------| 
|-12\---------------------------------------------------------------| 

      C          D               Em 
|-------------------------------/12-12-12-12--12-10-8-10-8-7-8-7-5-7-5-3---| 
|-----12b-10-----12b-10--10h12------------------------------------------5--| 
|--------------------------------------------------------------------------| 
|--------------------------------------------------------------------------| 
|--------------------------------------------------------------------------| 
|--------------------------------------------------------------------------| 


And All these days... 
(Strum) 
Em   C   Am   Em 

I need your love... 
(strum) 
Em   C   D    Em 

Chorus 3: 

When the Night... 
(strum) 
Em   C   Am   Em 

I'll use your light 
(strum) 
Em   C   D 

Ending: 

      Em                         Em                      Em 
|-----------------------------------------------------------------------| 
|--------1---0------------------1---0------------------1---0------------| 
|----------------2h4-0------------------2-2h4------------------2h4-0----| 
|------2----------------------2----------------------2------------------| 
|----2----------------------2----------------------2--------------------| 
|--0-------0---0----------0-------0---0----------0-------0---0----------| 

           Em (slowly) 
|-----------------| 
|-----------------| 
|----0-----0------| 
|---2-2----2------| 
|--2---2---2------| 
|-0--------0------| 
	  

Request the video "I Woke Up In London"  -  Send "I Woke Up In London" Ringtone to your Cell

there isn't a video lesson for this song

request
Full key step upFull key step up
Half key step upHalf key step up
Half key step downHalf key step down
Full key step downFull key step down
Search
auto scroll beats size up size down change color hide chords drawings
tab show chords e-chords YouTube Clip e-chords hide all tabs e-chords go to top tab