RBD

home > RBD > chords

Dejame Keyboard

RBD

Difficulty: BeginnerBeginner

by Limaum

tuner correct add songbook print version text version rtf version e-mail
chordsukulelecavacokeyboardtabbassdrumsharmonicsflute Guitar Pro
chords

Dejame

	  E		          G#  
     Dejame intentarlo otra vez  
  C#m    		        A  
    Se que  he tropezado y es justo ya lo se  
   E	                G#  
    Mirame a los ojos aqui estoy  
  C#m			        A  
    Tengo mucho miedo de perderte y no hay razon  
  
           E  
  Porque sin ti ya no respiro  
          G#m  
  en las noches tengo frio  
	 C#m                    Am  
  necesito la otra parte de mi ser  
	  E  
  Lo mejor de mi pasado,  
         G#m  
  mi presente y mi futuro  
	C#m  		    Am  
  mi  razon para sobrevivir.... para vivir  
  
exibir solos e dicasriff 1  
e-------------------------------------------------I  
B----------------------------5--7--9--7--5--10----I  
G--9--11--13--11--9--8--6-------------------------I  
D-------------------------------------------------I  
A-------------------------------------------------I  
E-------------------------------------------------I  
Riff 2  
e--------------------------------------------------I  
B----------------------------5--7--9--7--5--2--5---I  
G--9--11--13--11--9--8--6--------------------------I  
D--------------------------------------------------I  
A--------------------------------------------------I  
E--------------------------------------------------I  
    E		             G#  
      Dejame intentarlo una vez mas  
   C#m		             A  
      Para que no viva en esta cruda realidad  
    E		        G#  
      Dejame hundirme en mi dolor  
    C#m			     A  
      Se que tengo mucho que aprender de los dos  
  
           E  
  Porque sin ti ya no respiro  
          G#m  
  en las noches tengo frio  
	 C#m                    Am  
  necesito la otra parte de mi ser  
	  E  
  Lo mejor de mi pasado,  
         G#m  
  mi presente y mi futuro  
	C#m  		    Am  
  mi  razon para sobrevivir.... para vivir  
  
Inter.  
      E - G# - C#m - A (x2)  
  
  
Riff 3  
e-----------------------------------------------------I  
B--------------------------5--7--9--7--5--10--9--10--9I  
G--9--11--13--11--9--8--6-----------------------------I  
D-----------------------------------------------------I  
A-----------------------------------------------------I  
E-----------------------------------------------------I  
          E  
  Porque sin ti ya no respiro  
         G#m  
  en las noches tengo frio  
	 C#m                   Am  
  necesito la otra parte de mi ser  
	 E  
  Lo mejor de mi pasado,  
         G#m  
  mi presente y mi futuro  
	C#m  		Am  
  mi  razon para sobrevivir??.. para vivir  
  
  E   G#   C#m   A  
                para vivir  (uoooh uoooh)  
  E   G#   C#m   A  
                para vivir  (uoooh uoooh)  
  E   G#   C#m   Am  
 

	  

Request the video "Dejame"  -  Send "Dejame" Ringtone to your Cell

there isn't a video lesson for this song

request
Full key step upFull key step up
Half key step upHalf key step up
Half key step downHalf key step down
Full key step downFull key step down
e-chords
Search
auto scroll beats size up size down change color columns
tab show chords e-chords YouTube Clip e-chords hide all tabs e-chords go to top tab