Toshiro Masuda

home > Toshiro Ma... > chords

Naruto Main Theme Chords

Toshiro Masuda

Difficulty: BeginnerBeginner

by TheGuitarist#1

tuner correct add songbook print version text version rtf version e-mail
chordsukulelecavacokeyboardtabbassdrumsharmonicsflute Guitar Pro
chords

Naruto Main Theme

	   |                   E E E E E E E E   E E E E E E E E   E E E E E E E E 
E|-----------------|-----------------|-------0---------|-----------------| 
B|-----------------|-------1-3-1-----|-----1---3-1-3---|---------3-1---1-| 
G|-----------------|-2-0-2-------2-0-|---2-----------2-|-----0-2-----2---| 
D|-----------------|-----------------|-2---------------|-2-0-------------| 
A|-----------------|-----------------|-----------------|-----------------| 
E|-----------------|-----------------|-----------------|-----------------| 
 | 
 | 
 | 
 | 
 | 
 |                   E E E E E E E E   E E E E E E E E   E E E E E E E E 
E|-----------------|-----------------|-------0---------|-----------------| 
B|-----------------|-------1-3-1-----|-----1---3-1-3---|---------3-1---1-| 
G|-----------------|-2-0-2-------2-0-|---2-----------2-|-----0-2-----2---| 
D|-----------------|-----------------|-2---------------|-2-0-------------| 
A|-----------------|-----------------|-----------------|-----------------| 
E|-----------------|-----------------|-----------------|-----------------| 
 | 
 | 
 | E E E E E E E E   E E E E E E E E   E E E E E E E E   E E E E E E E E 
E|---0-------------|-----------------|-------0---------|-----------------| 
B|-----1-3---1-----|-------1-3-1-----|-----1---3-1-3---|---------3-1---1-| 
G|-2-------2---2-0-|-2-0-2-------2-0-|---2-----------2-|-----0-2-----2---| 
D|-----------------|-----------------|-2---------------|-2-0-------------| 
A|-----------------|-----------------|-----------------|-----------------| 
E|-----------------|-----------------|-----------------|-----------------| 
 | 
 | 
 | 
 | 
 | 
 | E E E E E E E E   E E E E E E E E   E E E E E E E E   E E E E E E E E 
E|---0-------------|-----------------|-------0---------|-----------------| 
B|-----1-3---1-----|-------1-3-1-----|-----1---3-1-3---|---------3-1---1-| 
G|-2-------2---2-0-|-2-0-2-------2-0-|---2-----------2-|-----0-2-----2---| 
D|-----------------|-----------------|-2---------------|-2-0-------------| 
A|-----------------|-----------------|-----------------|-----------------| 
E|-----------------|-----------------|-----------------|-----------------| 
 
 
 
 
 
 
                     E  Q.      Q      Q       E E.  S E H 
E|-----------------|-10-9+------9------------|-8-8---8-8-7---------| 
B|-----------------|-10-10+-----10-----------|-8-8---8-8-8---------| 
G|-----------------|-9--9+------9------------|-7-7---7-7-7---------| 
D|-----------------|-------------------------|---------------------| 
A|-----------------|-------------------------|---------------------| 
E|-----------------|-------------------------|---------------------| 
 | 
 | 
 | 
 | 
 | 
 |                   E  Q.      E  S S S S E   E E.  S E E E   E E 
E|-----------------|-------------------------|---------------------| 
B|-----------------|-------------------------|---------------------| 
G|-----------------|-2--2-------2--2-2+2-2-2-|-0-0---0-0-0-0---0-0-| 
D|-----------------|-2--2-------2--2-2+2-2-2-|-0-0---0-0-0-0---0-0-| 
A|-----------------|-0--0-------0--0-0+0-0-0-|---------------------| 
E|-----------------|-------------------------|-3-3---3-3-3-3---3-3-| 
 | 
 | 
 | 
 | 
 | 
 | 
E|-----------------|-------------------------|---------------------| 
B|-----------------|-------------------------|---------------------| 
G|-----------------|-------------------------|---------------------| 
D|-----------------|-------------------------|---------------------| 
A|-----------------|-------------------------|---------------------| 
E|-----------------|-------------------------|---------------------| 
 | 
 | 
 | 
 | 
 | 
 | E E E E E E E E   E  E   E E E  S S S S E   E E  E  E E S S Q 
E|---0-------------|----5---3-5-0--------0---|---5--3--5-8-7-5+5---| 
B|-----1-3---1-----|---------------1-3+3---1-|---------------------| 
G|-2-------2---2-0-|-------------------------|---------------------| 
D|-----------------|-------------------------|---------------------| 
A|-----------------|-------------------------|---------------------| 
E|-----------------|-------------------------|---------------------| 
 | 
 | 
 | 
 | 
 | 
 | E E E E E E E E   E  E   E E E  S S S S E   E E  E  E E S S Q 
E|---0-------------|----5---3-5-0--------0---|---5--3--5-8-7-5+5---| 
B|-----1-3---1-----|---------------1-3+3---1-|---------------------| 
G|-2-------2---2-0-|-------------------------|---------------------| 
D|-----------------|-------------------------|---------------------| 
A|-----------------|-------------------------|---------------------| 
E|-----------------|-------------------------|---------------------| 
 
 
 
 
 
 
   E Q.     Q     Q       E  E.   S E E.    S  SS E   E  Q.      Q      Q 
E|-5-5+-----5-----------|-5--5----5-5-7-----7---7-7-|-10-9+------9------------| 
B|-8-7+-----7-----------|-6--6----6-6-8-----8---8-8-|-10-10+-----10-----------| 
G|-7-7+-----7-----------|-5--5----5-5-7-----7---7-7-|-9--9+------9------------| 
D|----------------------|---------------------------|-------------------------| 
A|----------------------|---------------------------|-------------------------| 
E|----------------------|---------------------------|-------------------------| 
 | 
 | 
 | 
 | 
 | 
 | E Q.     E S S S S E   S E  S E  E S  E  S  E  E   E  Q.      E  S S S S E 
E|----------------------|---------------------------|-------------------------| 
B|-3-3------3-3-3+3-3-3-|---------------------------|-------------------------| 
G|-2-2------2-2-2+2-2-2-|-------------0--0--0--0--0-|-2--2-------2--2-2+2-2-2-| 
D|-0-0------0-0-0+0-0-0-|-3-3--3-3--3-0--0--0--0--0-|-2--2-------2--2-2+2-2-2-| 
A|----------------------|-3-3--3-3--3---------------|-0--0-------0--0-0+0-0-0-| 
E|----------------------|-1-1--1-1--1-3--3--3--3--3-|-------------------------| 
 | 
 | 
 | 
 | 
 | 
 | 
E|----------------------|---------------------------|-------------------------| 
B|----------------------|---------------------------|-------------------------| 
G|----------------------|---------------------------|-------------------------| 
D|----------------------|---------------------------|-------------------------| 
A|----------------------|---------------------------|-------------------------| 
E|----------------------|---------------------------|-------------------------| 
 | 
 | 
 | 
 | 
 | 
 | E E  E E E S S S S E   E  E   E  E E   S S  E  E   E  E   E E E  S S S S E 
E|---5--3-5-0-------0---|----5---3--5-8---7-5+-5--3-|----5---3-5-0--------0---| 
B|------------1-3+3---1-|---------------------------|---------------1-3+3---1-| 
G|----------------------|---------------------------|-------------------------| 
D|----------------------|---------------------------|-------------------------| 
A|----------------------|---------------------------|-------------------------| 
E|----------------------|---------------------------|-------------------------| 
 | 
 | 
 | 
 | 
 | 
 | E E  E E E S S S S E   E  E   E  E E   S S  E  E   E  E   E E E  S S S S E 
E|---5--3-5-0-------0---|----5---3--5-8---7-5+-5--3-|----5---3-5-0--------0---| 
B|------------1-3+3---1-|---------------------------|---------------1-3+3---1-| 
G|----------------------|---------------------------|-------------------------| 
D|----------------------|---------------------------|-------------------------| 
A|----------------------|---------------------------|-------------------------| 
E|----------------------|---------------------------|-------------------------| 
 
 
 
 
 
 
   E E.  S E H           E Q.     Q     Q       E  E.  S  E  H 
E|-8-8---8-8-7---------|-5-5+-----5-----------|-10-10--10-10-9------------| 
B|-8-8---8-8-8---------|-8-7+-----7-----------|-10-10--10-10-10-----------| 
G|-7-7---7-7-7---------|-7-7+-----7-----------|-9--9---9--9--9------------| 
D|---------------------|----------------------|---------------------------| 
A|---------------------|----------------------|---------------------------| 
E|---------------------|----------------------|---------------------------| 
 | 
 | 
 | 
 | 
 | 
 | E E.  S E E E   E E   E Q.     E S S S S E   E  Q.        E  S S S S E 
E|---------------------|----------------------|---------------------------| 
B|---------------------|-3-3------3-3-3+3-3-3-|---------------------------| 
G|-0-0---0-0-0-0---0-0-|-2-2------2-2-2+2-2-2-|-2--2---------2--2-2+2-2-2-| 
D|-0-0---0-0-0-0---0-0-|-0-0------0-0-0+0-0-0-|-2--2---------2--2-2+2-2-2-| 
A|---------------------|----------------------|-0--0---------0--0-0+0-0-0-| 
E|-3-3---3-3-3-3---3-3-|----------------------|---------------------------| 
 | 
 | 
 | 
 | 
 | 
 | 
E|---------------------|----------------------|---------------------------| 
B|---------------------|----------------------|---------------------------| 
G|---------------------|----------------------|---------------------------| 
D|---------------------|----------------------|---------------------------| 
A|---------------------|----------------------|---------------------------| 
E|---------------------|----------------------|---------------------------| 
 | 
 | 
 | 
 | 
 | 
 | E E  E  E E S S Q     E E  E E E S S S S E   E  E  E   E  E  S S E   E 
E|---5--3--5-8-7-5+5---|---5--3-5-0-------0---|----5--3---5--8--7-5+5---3-| 
B|---------------------|------------1-3+3---1-|---------------------------| 
G|---------------------|----------------------|---------------------------| 
D|---------------------|----------------------|---------------------------| 
A|---------------------|----------------------|---------------------------| 
E|---------------------|----------------------|---------------------------| 
 | 
 | 
 | 
 | 
 | 
 | E E  E  E E S S Q     E E  E E E S S S S E   E  E  E   E  E  S S E   E 
E|---5--3--5-8-7-5+5---|---5--3-5-0-------0---|----5--3---5--8--7-5+5---3-| 
B|---------------------|------------1-3+3---1-|---------------------------| 
G|---------------------|----------------------|---------------------------| 
D|---------------------|----------------------|---------------------------| 
A|---------------------|----------------------|---------------------------| 
E|---------------------|----------------------|---------------------------| 
 
 
 
 
 
 
   E  Q.      Q      Q       E E.  S E H           E Q.     Q     Q 
E|-10-9+------9------------|-8-8---8-8-7---------|-5-5+-----5-----------| 
B|-10-10+-----10-----------|-8-8---8-8-8---------|-8-7+-----7-----------| 
G|-9--9+------9------------|-7-7---7-7-7---------|-7-7+-----7-----------| 
D|-------------------------|---------------------|----------------------| 
A|-------------------------|---------------------|----------------------| 
E|-------------------------|---------------------|----------------------| 
 | 
 | 
 | 
 | 
 | 
 | E  Q.      E  S S S S E   E E.  S E E E   E E   E Q.     E S S S S E 
E|-------------------------|---------------------|----------------------| 
B|-------------------------|---------------------|-3-3------3-3-3+3-3-3-| 
G|-2--2-------2--2-2+2-2-2-|-0-0---0-0-0-0---0-0-|-2-2------2-2-2+2-2-2-| 
D|-2--2-------2--2-2+2-2-2-|-0-0---0-0-0-0---0-0-|-0-0------0-0-0+0-0-0-| 
A|-0--0-------0--0-0+0-0-0-|---------------------|----------------------| 
E|-------------------------|-3-3---3-3-3-3---3-3-|----------------------| 
 | 
 | 
 | 
 | 
 | 
 | 
E|-------------------------|---------------------|----------------------| 
B|-------------------------|---------------------|----------------------| 
G|-------------------------|---------------------|----------------------| 
D|-------------------------|---------------------|----------------------| 
A|-------------------------|---------------------|----------------------| 
E|-------------------------|---------------------|----------------------| 
 | 
 | 
 | 
 | 
 | 
 | E  E   E E E  S S S S E   E E  E  E E S S Q     E E  E E E S S S S E 
E|----5---3-5-0--------0---|---5--3--5-8-7-5+5---|---5--3-5-0-------0---| 
B|---------------1-3+3---1-|---------------------|------------1-3+3---1-| 
G|-------------------------|---------------------|----------------------| 
D|-------------------------|---------------------|----------------------| 
A|-------------------------|---------------------|----------------------| 
E|-------------------------|---------------------|----------------------| 
 | 
 | 
 | 
 | 
 | 
 | E  E   E E E  S S S S E   E E  E  E E S S Q     E E  E E E S S S S E 
E|----5---3-5-0--------0---|---5--3--5-8-7-5+5---|---5--3-5-0-------0---| 
B|---------------1-3+3---1-|---------------------|------------1-3+3---1-| 
G|-------------------------|---------------------|----------------------| 
D|-------------------------|---------------------|----------------------| 
A|-------------------------|---------------------|----------------------| 
E|-------------------------|---------------------|----------------------| 
 
 
 
 
 
 
   E  E.   S E E.    S  SS E   E  Q.      Q      Q       E E.  S E H 
E|-5--5----5-5-7-----7---7-7-|-10-9+------9------------|-8-8---8-8-7---------| 
B|-6--6----6-6-8-----8---8-8-|-10-10+-----10-----------|-8-8---8-8-8---------| 
G|-5--5----5-5-7-----7---7-7-|-9--9+------9------------|-7-7---7-7-7---------| 
D|---------------------------|-------------------------|---------------------| 
A|---------------------------|-------------------------|---------------------| 
E|---------------------------|-------------------------|---------------------| 
 | 
 | 
 | 
 | 
 | 
 | S E  S E  E S  E  S  E  E   E  Q.      E  S S S S E   E E.  S E E E   E E 
E|---------------------------|-------------------------|---------------------| 
B|---------------------------|-------------------------|---------------------| 
G|-------------0--0--0--0--0-|-2--2-------2--2-2+2-2-2-|-0-0---0-0-0-0---0-0-| 
D|-3-3--3-3--3-0--0--0--0--0-|-2--2-------2--2-2+2-2-2-|-0-0---0-0-0-0---0-0-| 
A|-3-3--3-3--3---------------|-0--0-------0--0-0+0-0-0-|---------------------| 
E|-1-1--1-1--1-3--3--3--3--3-|-------------------------|-3-3---3-3-3-3---3-3-| 
 | 
 | 
 | 
 | 
 | 
 | 
E|---------------------------|-------------------------|---------------------| 
B|---------------------------|-------------------------|---------------------| 
G|---------------------------|-------------------------|---------------------| 
D|---------------------------|-------------------------|---------------------| 
A|---------------------------|-------------------------|---------------------| 
E|---------------------------|-------------------------|---------------------| 
 | 
 | 
 | 
 | 
 | 
 | E  E   E  E E   S S  E  E   E  E   E E E  S S S S E   E E  E  E E S S Q 
E|----5---3--5-8---7-5+-5--3-|----5---3-5-0--------0---|---5--3--5-8-7-5+5---| 
B|---------------------------|---------------1-3+3---1-|---------------------| 
G|---------------------------|-------------------------|---------------------| 
D|---------------------------|-------------------------|---------------------| 
A|---------------------------|-------------------------|---------------------| 
E|---------------------------|-------------------------|---------------------| 
 | 
 | 
 | 
 | 
 | 
 | E  E   E  E E   S S  E  E   E  E   E E E  S S S S E   E E  E  E E S S Q 
E|----5---3--5-8---7-5+-5--3-|----5---3-5-0--------0---|---5--3--5-8-7-5+5---| 
B|---------------------------|---------------1-3+3---1-|---------------------| 
G|---------------------------|-------------------------|---------------------| 
D|---------------------------|-------------------------|---------------------| 
A|---------------------------|-------------------------|---------------------| 
E|---------------------------|-------------------------|---------------------| 
 
 
 
 
 
 
   E Q.     Q     Q       E  E.  S  E  H              E  Q.      Q      Q 
E|-5-5+-----5-----------|-10-10--10-10-9------------|-10-9+------9------------| 
B|-8-7+-----7-----------|-10-10--10-10-10-----------|-10-10+-----10-----------| 
G|-7-7+-----7-----------|-9--9---9--9--9------------|-9--9+------9------------| 
D|----------------------|---------------------------|-------------------------| 
A|----------------------|---------------------------|-------------------------| 
E|----------------------|---------------------------|-------------------------| 
 | 
 | 
 | 
 | 
 | 
 | E Q.     E S S S S E   E  Q.        E  S S S S E   E  Q.      E  S S S S E 
E|----------------------|---------------------------|-------------------------| 
B|-3-3------3-3-3+3-3-3-|---------------------------|-------------------------| 
G|-2-2------2-2-2+2-2-2-|-2--2---------2--2-2+2-2-2-|-2--2-------2--2-2+2-2-2-| 
D|-0-0------0-0-0+0-0-0-|-2--2---------2--2-2+2-2-2-|-2--2-------2--2-2+2-2-2-| 
A|----------------------|-0--0---------0--0-0+0-0-0-|-0--0-------0--0-0+0-0-0-| 
E|----------------------|---------------------------|-------------------------| 
 | 
 | 
 | 
 | 
 | 
 | 
E|----------------------|---------------------------|-------------------------| 
B|----------------------|---------------------------|-------------------------| 
G|----------------------|---------------------------|-------------------------| 
D|----------------------|---------------------------|-------------------------| 
A|----------------------|---------------------------|-------------------------| 
E|----------------------|---------------------------|-------------------------| 
 | 
 | 
 | 
 | 
 | 
 | E E  E E E S S S S E   E  E  E   E  E  S S E   E   E  E   E E E  S S S S E 
E|---5--3-5-0-------0---|----5--3---5--8--7-5+5---3-|----5---3-5-0--------0---| 
B|------------1-3+3---1-|---------------------------|---------------1-3+3---1-| 
G|----------------------|---------------------------|-------------------------| 
D|----------------------|---------------------------|-------------------------| 
A|----------------------|---------------------------|-------------------------| 
E|----------------------|---------------------------|-------------------------| 
 | 
 | 
 | 
 | 
 | 
 | E E  E E E S S S S E   E  E  E   E  E  S S E   E   E  E   E E E  S S S S E 
E|---5--3-5-0-------0---|----5--3---5--8--7-5+5---3-|----5---3-5-0--------0---| 
B|------------1-3+3---1-|---------------------------|---------------1-3+3---1-| 
G|----------------------|---------------------------|-------------------------| 
D|----------------------|---------------------------|-------------------------| 
A|----------------------|---------------------------|-------------------------| 
E|----------------------|---------------------------|-------------------------| 
 
 
 
 
 
 
   E E.  S E H           E Q.     Q     Q       E  E.   S E E.    S  SS E 
E|-8-8---8-8-7---------|-5-5+-----5-----------|-5--5----5-5-7-----7---7-7-| 
B|-8-8---8-8-8---------|-8-7+-----7-----------|-6--6----6-6-8-----8---8-8-| 
G|-7-7---7-7-7---------|-7-7+-----7-----------|-5--5----5-5-7-----7---7-7-| 
D|---------------------|----------------------|---------------------------| 
A|---------------------|----------------------|---------------------------| 
E|---------------------|----------------------|---------------------------| 
 | 
 | 
 | 
 | 
 | 
 | E E.  S E E E   E E   E Q.     E S S S S E   S E  S E  E S  E  S  E  E 
E|---------------------|----------------------|---------------------------| 
B|---------------------|-3-3------3-3-3+3-3-3-|---------------------------| 
G|-0-0---0-0-0-0---0-0-|-2-2------2-2-2+2-2-2-|-------------0--0--0--0--0-| 
D|-0-0---0-0-0-0---0-0-|-0-0------0-0-0+0-0-0-|-3-3--3-3--3-0--0--0--0--0-| 
A|---------------------|----------------------|-3-3--3-3--3---------------| 
E|-3-3---3-3-3-3---3-3-|----------------------|-1-1--1-1--1-3--3--3--3--3-| 
 | 
 | 
 
 | 
 | 
 | 
 | 
 | 
 | E E  E  E E S S Q     E E  E E E S S S S E   E  E   E  E E   S S  E  E 
E|---5--3--5-8-7-5+5---|---5--3-5-0-------0---|----5---3--5-8---7-5+-5--3-| 
B|---------------------|------------1-3+3---1-|---------------------------| 
G|---------------------|----------------------|---------------------------| 
D|---------------------|----------------------|---------------------------| 
A|---------------------|----------------------|---------------------------| 
E|---------------------|----------------------|---------------------------| 
 | 
 | 
 | 
 | 
 | 
 | E E  E  E E S S Q     E E  E E E S S S S E   E  E   E  E E   S S  E  E 
E|---5--3--5-8-7-5+5---|---5--3-5-0-------0---|----5---3--5-8---7-5+-5--3-| 
B|---------------------|------------1-3+3---1-|---------------------------| 
G|---------------------|----------------------|---------------------------| 
D|---------------------|----------------------|---------------------------| 
A|---------------------|----------------------|---------------------------| 
E|---------------------|----------------------|---------------------------| 
 
 
 
 
 
 
   E  Q.      Q      Q       E E.  S E H           E Q.     Q     Q 
E|-10-9+------9------------|-8-8---8-8-7---------|-5-5+-----5-----------| 
B|-10-10+-----10-----------|-8-8---8-8-8---------|-8-7+-----7-----------| 
G|-9--9+------9------------|-7-7---7-7-7---------|-7-7+-----7-----------| 
D|-------------------------|---------------------|----------------------| 
A|-------------------------|---------------------|----------------------| 
E|-------------------------|---------------------|----------------------| 
 | 
 | 
 | 
 | 
 | 
 | E  Q.      E  S S S S E   E E.  S E E E   E E   E Q.     E S S S S E 
E|-------------------------|---------------------|----------------------| 
B|-------------------------|---------------------|-3-3------3-3-3+3-3-3-| 
G|-2--2-------2--2-2+2-2-2-|-0-0---0-0-0-0---0-0-|-2-2------2-2-2+2-2-2-| 
D|-2--2-------2--2-2+2-2-2-|-0-0---0-0-0-0---0-0-|-0-0------0-0-0+0-0-0-| 
A|-0--0-------0--0-0+0-0-0-|---------------------|----------------------| 
E|-------------------------|-3-3---3-3-3-3---3-3-|----------------------| 
 | 
  | 
 | 
 | 
 | 
 | 
 | E  E   E E E  S S S S E   E E  E  E E S S Q     E E  E E E S S S S E 
E|----5---3-5-0--------0---|---5--3--5-8-7-5+5---|---5--3-5-0-------0---| 
B|---------------1-3+3---1-|---------------------|------------1-3+3---1-| 
G|-------------------------|---------------------|----------------------| 
D|-------------------------|---------------------|----------------------| 
A|-------------------------|---------------------|----------------------| 
E|-------------------------|---------------------|----------------------| 
 | 
 | 
 | 
 | 
 | 
 | E  E   E E E  S S S S E   E E  E  E E S S Q     E E  E E E S S S S E 
E|----5---3-5-0--------0---|---5--3--5-8-7-5+5---|---5--3-5-0-------0---| 
B|---------------1-3+3---1-|---------------------|------------1-3+3---1-| 
G|-------------------------|---------------------|----------------------| 
D|-------------------------|---------------------|----------------------| 
A|-------------------------|---------------------|----------------------| 
E|-------------------------|---------------------|----------------------| 
 
 
 
 
 
 
   E  E.  S  E  H              SSSSSSS S S  S SSS SSS  E  SSSSSSS SSSSSSS 
E|-10-10--10-10-9------------|-----------------------|-------------------| 
B|-10-10--10-10-10-----------|-----------------------|-------------------| 
G|-9--9---9--9--9------------|-----------------------|-0--0-0-0-0--0-0-0-| 
D|---------------------------|-3-3-3-3---3----3-3--3-|-0--0-0-0-0--0-0-0-| 
A|---------------------------|-3-3-3-3---3----3-3--3-|-------------------| 
E|---------------------------|-1-1-1-1---1----1-1--1-|-3--3-3-3-3--3-3-3-| 
 | 
 | 
 | 
 | 
 | 
 | E  Q.        E  S S S S E   SSSSSSS S S  S SSQ      E  SSSSSSS SSSQ 
E|---------------------------|-----------------------|-------------------| 
B|---------------------------|-----------------------|-------------------| 
G|-2--2---------2--2-2+2-2-2-|-----------------------|-0--0-0-0-0--0-0---| 
D|-2--2---------2--2-2+2-2-2-|-3-3-3-3-3-3--3-3-3----|-0--0-0-0-0--0-0---| 
A|-0--0---------0--0-0+0-0-0-|-3-3-3-3-3-3--3-3-3----|-------------------| 
E|---------------------------|-1-1-1-1-1-1--1-1-1----|-3--3-3-3-3--3-3---| 
 | 
 | 
 | 
 | 
 | 
 |                             Q   Q     Q      Q      H        Q    Q 
E|---------------------------|-----5-----8------17---|-15-------12---7---| 
B|---------------------------|-----6-----10-----17---|-15-------12---8---| 
G|---------------------------|-----------------------|-------------------| 
D|---------------------------|-----------------------|-------------------| 
A|---------------------------|-----------------------|-------------------| 
E|---------------------------|-----------------------|-------------------| 
 | 
 | 
 | 
 | 
 | 
 | E  E  E   E  E  S S E   E 
E|----5--3---5--8--7-5+5---3-|-----------------------|-------------------| 
B|---------------------------|-----------------------|-------------------| 
G|---------------------------|-----------------------|-------------------| 
D|---------------------------|-----------------------|-------------------| 
A|---------------------------|-----------------------|-------------------| 
E|---------------------------|-----------------------|-------------------| 
 | 
 | 
 | 
 | 
 | 
 | E  E  E   E  E  S S E   E 
E|----5--3---5--8--7-5+5---3-|-----------------------|-------------------| 
B|---------------------------|-----------------------|-------------------| 
G|---------------------------|-----------------------|-------------------| 
D|---------------------------|-----------------------|-------------------| 
A|---------------------------|-----------------------|-------------------| 
E|---------------------------|-----------------------|-------------------| 
 
 
 
 
 
 
   E. S E E E. S SS S S  E. S E E E. S Q     SSSSSSS S S  S SSS SSS 
E|---------------------|-------------------|-----------------------| 
B|---------------------|-------------------|-----------------------| 
G|----2+2-0------------|----2+2-0----------|-----------------------| 
D|----------4--2+2-----|----------4--2+2---|-3-3-3-3---3----3-3--3-| 
A|-0--------------0-3-4|-0-----------------|-3-3-3-3---3----3-3--3-| 
E|---------------------|-------------------|-1-1-1-1---1----1-1--1-| 
 | 
 | 
 | 
 | 
 | 
 | E. S E E E. S SS S S  E. S E E E. S Q     SSSSSSS S S  S SSQ 
E|---------------------|-------------------|-----------------------| 
B|---------------------|-------------------|-----------------------| 
G|----2+2-0------------|----2+2-0----------|-----------------------| 
D|----------4--2+2-----|----------4--2+2---|-3-3-3-3-3-3--3-3-3----| 
A|-0--------------0-3-4|-0-----------------|-3-3-3-3-3-3--3-3-3----| 
E|---------------------|-------------------|-1-1-1-1-1-1--1-1-1----| 
 | 
 | 
 | 
 | 
 | 
 | W                     W                   Q   Q     Q      Q 
E|-9+------------------|-9-----------------|-----5-----8------17---| 
B|-10+-----------------|-10----------------|-----6-----10-----17---| 
G|---------------------|-------------------|-----------------------| 
D|---------------------|-------------------|-----------------------| 
A|---------------------|-------------------|-----------------------| 
E|---------------------|-------------------|-----------------------| 
 | 
 
 
 
 
 
 
   E  SSSSSSS  S SSS SSS  E  E SSSSS S SSSSSS  E  E E E E E E E 
E|----------------------|--------------------|-0--0-0-0-0-0-0-0-| 
B|----------------------|-3--3-3-3-3---3-3-3-|-0--0-0-0-0-0-0-0-| 
G|-0--0-0-0-0----0-0--0-|-2--2-2-2-2---2-2-2-|------------------| 
D|-0--0-0-0-0----0-0--0-|-0--0-0-0-0---0-0-0-|-2--2-2-2-2-2-2-2-| 
A|----------------------|--------------------|------------------| 
E|-3--3-3-3-3----3-3--3-|--------------------|------------------| 
 | 
 | 
 | 
 | 
 | 
 | E  SSSSSSS  S SSQ      E  E SSSSS S SSSSSS  E  E E E E E E E 
E|----------------------|--------------------|-0--0-0-0-0-0-0-0-| 
B|----------------------|-3--3-3-3-3-3-3-3-3-|-0--0-0-0-0-0-0-0-| 
G|-0--0-0-0-0--0-0-0----|-2--2-2-2-2-2-2-2-2-|------------------| 
D|-0--0-0-0-0--0-0-0----|-0--0-0-0-0-0-0-0-0-|-2--2-2-2-2-2-2-2-| 
A|----------------------|--------------------|------------------| 
E|-3--3-3-3-3--3-3-3----|--------------------|------------------| 
 | 
 | 
 | 
 | 
 | 
 | H        Q      Q      W                    W 
E|-15-------22-----19---|-17-----------------|-19---------------| 
B|-15-------24-----20---|-19-----------------|-21---------------| 
G|----------------------|--------------------|------------------| 
D|----------------------|--------------------|------------------| 
A|----------------------|--------------------|------------------| 
E|----------------------|--------------------|------------------| 
 | 
 | 
 
 
 
 
   E  Q.      Q      Q       E E.  S E H           E Q.     Q     Q 
E|-10-9+------9------------|-8-8---8-8-7---------|-5-5+-----5-----------| 
B|-10-10+-----10-----------|-8-8---8-8-8---------|-8-7+-----7-----------| 
G|-9--9+------9------------|-7-7---7-7-7---------|-7-7+-----7-----------| 
D|-------------------------|---------------------|----------------------| 
A|-------------------------|---------------------|----------------------| 
E|-------------------------|---------------------|----------------------| 
 | 
 | 
 | 
 | 
 | 
 | E  Q.      E  S S S S E   E E.  S E E E   E E   E Q.     E S S S S E 
E|-------------------------|---------------------|----------------------| 
B|-------------------------|---------------------|-3-3------3-3-3+3-3-3-| 
G|-2--2-------2--2-2+2-2-2-|-0-0---0-0-0-0---0-0-|-2-2------2-2-2+2-2-2-| 
D|-2--2-------2--2-2+2-2-2-|-0-0---0-0-0-0---0-0-|-0-0------0-0-0+0-0-0-| 
A|-0--0-------0--0-0+0-0-0-|---------------------|----------------------| 
E|-------------------------|-3-3---3-3-3-3---3-3-|----------------------| 
 | 
  
 | 
 | E  E   E E E  S S S S E   E E  E  E E S S Q     E E  E E E S S S S E 
E|----5---3-5-0--------0---|---5--3--5-8-7-5+5---|---5--3-5-0-------0---| 
B|---------------1-3+3---1-|---------------------|------------1-3+3---1-| 
G|-------------------------|---------------------|----------------------| 
D|-------------------------|---------------------|----------------------| 
A|-------------------------|---------------------|----------------------| 
E|-------------------------|---------------------|----------------------| 
 | 
 | 
 | 
 | 
 | 
 | E  E   E E E  S S S S E   E E  E  E E S S Q     E E  E E E S S S S E 
E|----5---3-5-0--------0---|---5--3--5-8-7-5+5---|---5--3-5-0-------0---| 
B|---------------1-3+3---1-|---------------------|------------1-3+3---1-| 
G|-------------------------|---------------------|----------------------| 
D|-------------------------|---------------------|----------------------| 
A|-------------------------|---------------------|----------------------| 
E|-------------------------|---------------------|----------------------| 
 
 
 
 
 
 
   E  E.   S E E.    S  SS E   E  Q.      Q      Q       E E.  S E H 
E|-5--5----5-5-7-----7---7-7-|-10-9+------9------------|-8-8---8-8-7---------| 
B|-6--6----6-6-8-----8---8-8-|-10-10+-----10-----------|-8-8---8-8-8---------| 
G|-5--5----5-5-7-----7---7-7-|-9--9+------9------------|-7-7---7-7-7---------| 
D|---------------------------|-------------------------|---------------------| 
A|---------------------------|-------------------------|---------------------| 
E|---------------------------|-------------------------|---------------------| 
 | 
 | 
 | 
 | 
 | 
 | S E  S E  E S  E  S  E  E   E  Q.      E  S S S S E   E E.  S E E E   E E 
E|---------------------------|-------------------------|---------------------| 
B|---------------------------|-------------------------|---------------------| 
G|-------------0--0--0--0--0-|-2--2-------2--2-2+2-2-2-|-0-0---0-0-0-0---0-0-| 
D|-3-3--3-3--3-0--0--0--0--0-|-2--2-------2--2-2+2-2-2-|-0-0---0-0-0-0---0-0-| 
A|-3-3--3-3--3---------------|-0--0-------0--0-0+0-0-0-|---------------------| 
E|-1-1--1-1--1-3--3--3--3--3-|-------------------------|-3-3---3-3-3-3---3-3-| 
 | 
  | 
 | 
 | E  E   E  E E   S S  E  E   E  E   E E E  S S S S E   E E  E  E E S S Q 
E|----5---3--5-8---7-5+-5--3-|----5---3-5-0--------0---|---5--3--5-8-7-5+5---| 
B|---------------------------|---------------1-3+3---1-|---------------------| 
G|---------------------------|-------------------------|---------------------| 
D|---------------------------|-------------------------|---------------------| 
A|---------------------------|-------------------------|---------------------| 
E|---------------------------|-------------------------|---------------------| 
 | 
 | 
 | 
 | 
 | 
 | E  E   E  E E   S S  E  E   E  E   E E E  S S S S E   E E  E  E E S S Q 
E|----5---3--5-8---7-5+-5--3-|----5---3-5-0--------0---|---5--3--5-8-7-5+5---| 
B|---------------------------|---------------1-3+3---1-|---------------------| 
G|---------------------------|-------------------------|---------------------| 
D|---------------------------|-------------------------|---------------------| 
A|---------------------------|-------------------------|---------------------| 
E|---------------------------|-------------------------|---------------------| 
 
 
 
 
 
 
   E Q.     Q     Q       E  E.  S  E  H              E  Q.      Q      Q 
E|-5-5+-----5-----------|-10-10--10-10-9------------|-10-9+------9------------| 
B|-8-7+-----7-----------|-10-10--10-10-10-----------|-10-10+-----10-----------| 
G|-7-7+-----7-----------|-9--9---9--9--9------------|-9--9+------9------------| 
D|----------------------|---------------------------|-------------------------| 
A|----------------------|---------------------------|-------------------------| 
E|----------------------|---------------------------|-------------------------| 
 | 
 | 
 | 
 | 
 | 
 | E Q.     E S S S S E   E  Q.        E  S S S S E   E  Q.      E  S S S S E 
E|----------------------|---------------------------|-------------------------| 
B|-3-3------3-3-3+3-3-3-|---------------------------|-------------------------| 
G|-2-2------2-2-2+2-2-2-|-2--2---------2--2-2+2-2-2-|-2--2-------2--2-2+2-2-2-| 
D|-0-0------0-0-0+0-0-0-|-2--2---------2--2-2+2-2-2-|-2--2-------2--2-2+2-2-2-| 
A|----------------------|-0--0---------0--0-0+0-0-0-|-0--0-------0--0-0+0-0-0-| 
E|----------------------|---------------------------|-------------------------| 
 | 
 | 
 | 
 | 
 | 
 | 
 | 
 | 
 | E E  E E E S S S S E   E  E  E   E  E  S S E   E   E  E   E E E  S S S S E 
E|---5--3-5-0-------0---|----5--3---5--8--7-5+5---3-|----5---3-5-0--------0---| 
B|------------1-3+3---1-|---------------------------|---------------1-3+3---1-| 
G|----------------------|---------------------------|-------------------------| 
D|----------------------|---------------------------|-------------------------| 
A|----------------------|---------------------------|-------------------------| 
E|----------------------|---------------------------|-------------------------| 
 | 
 | 
 | 
 | 
 | 
 | E E  E E E S S S S E   E  E  E   E  E  S S E   E   E  E   E E E  S S S S E 
E|---5--3-5-0-------0---|----5--3---5--8--7-5+5---3-|----5---3-5-0--------0---| 
B|------------1-3+3---1-|---------------------------|---------------1-3+3---1-| 
G|----------------------|---------------------------|-------------------------| 
D|----------------------|---------------------------|-------------------------| 
A|----------------------|---------------------------|-------------------------| 
E|----------------------|---------------------------|-------------------------| 
 
 
 
 
 
 
   E E.  S E H           E Q.     Q     Q       E  E.   S E E.    S  SS E 
E|-8-8---8-8-7---------|-5-5+-----5-----------|-5--5----5-5-7-----7---7-7-| 
B|-8-8---8-8-8---------|-8-7+-----7-----------|-6--6----6-6-8-----8---8-8-| 
G|-7-7---7-7-7---------|-7-7+-----7-----------|-5--5----5-5-7-----7---7-7-| 
D|---------------------|----------------------|---------------------------| 
A|---------------------|----------------------|---------------------------| 
E|---------------------|----------------------|---------------------------| 
 | 
 | 
 | 
 | 
 | 
 | E E.  S E E E   E E   E Q.     E S S S S E   S E  S E  E S  E  S  E  E 
E|---------------------|----------------------|---------------------------| 
B|---------------------|-3-3------3-3-3+3-3-3-|---------------------------| 
G|-0-0---0-0-0-0---0-0-|-2-2------2-2-2+2-2-2-|-------------0--0--0--0--0-| 
D|-0-0---0-0-0-0---0-0-|-0-0------0-0-0+0-0-0-|-3-3--3-3--3-0--0--0--0--0-| 
A|---------------------|----------------------|-3-3--3-3--3---------------| 
E|-3-3---3-3-3-3---3-3-|----------------------|-1-1--1-1--1-3--3--3--3--3-| 
 | 
 | 
 | 
 | 
 | 
 | 
E|---------------------|----------------------|---------------------------| 
B|---------------------|----------------------|---------------------------| 
G|---------------------|----------------------|---------------------------| 
D|---------------------|----------------------|---------------------------| 
A|---------------------|----------------------|---------------------------| 
E|---------------------|----------------------|---------------------------| 
 | 
 | 
 | 
 | 
 | 
 | E E  E  E E S S Q     E E  E E E S S S S E   E  E   E  E E   S S  E  E 
E|---5--3--5-8-7-5+5---|---5--3-5-0-------0---|----5---3--5-8---7-5+-5--3-| 
B|---------------------|------------1-3+3---1-|---------------------------| 
G|---------------------|----------------------|---------------------------| 
D|---------------------|----------------------|---------------------------| 
A|---------------------|----------------------|---------------------------| 
E|---------------------|----------------------|---------------------------| 
 | 
 | 
 | 
 | 
 | 
 | E E  E  E E S S Q     E E  E E E S S S S E   E  E   E  E E   S S  E  E 
E|---5--3--5-8-7-5+5---|---5--3-5-0-------0---|----5---3--5-8---7-5+-5--3-| 
B|---------------------|------------1-3+3---1-|---------------------------| 
G|---------------------|----------------------|---------------------------| 
D|---------------------|----------------------|---------------------------| 
A|---------------------|----------------------|---------------------------| 
E|---------------------|----------------------|---------------------------| 
 
 
 
 
 
 
   E  Q.      Q      Q       E E.  S E H           E Q.     Q     Q 
E|-10-9+------9------------|-8-8---8-8-7---------|-5-5+-----5-----------| 
B|-10-10+-----10-----------|-8-8---8-8-8---------|-8-7+-----7-----------| 
G|-9--9+------9------------|-7-7---7-7-7---------|-7-7+-----7-----------| 
D|-------------------------|---------------------|----------------------| 
A|-------------------------|---------------------|----------------------| 
E|-------------------------|---------------------|----------------------| 
 | 
 | 
 | 
 | 
 | 
 | E  Q.      E  S S S S E   E E.  S E E E   E E   E Q.     E S S S S E 
E|-------------------------|---------------------|----------------------| 
B|-------------------------|---------------------|-3-3------3-3-3+3-3-3-| 
G|-2--2-------2--2-2+2-2-2-|-0-0---0-0-0-0---0-0-|-2-2------2-2-2+2-2-2-| 
D|-2--2-------2--2-2+2-2-2-|-0-0---0-0-0-0---0-0-|-0-0------0-0-0+0-0-0-| 
A|-0--0-------0--0-0+0-0-0-|---------------------|----------------------| 
E|-------------------------|-3-3---3-3-3-3---3-3-|----------------------| 
 | 
 | 
 | 
 | 
 | 
 | 
E|-------------------------|---------------------|----------------------| 
B|-------------------------|---------------------|----------------------| 
G|-------------------------|---------------------|----------------------| 
D|-------------------------|---------------------|----------------------| 
A|-------------------------|---------------------|----------------------| 
E|-------------------------|---------------------|----------------------| 
 | 
 | 
 | 
 | 
 | 
 | E  E   E E E  S S S S E   E E  E  E E S S Q     E E  E E E S S S S E 
E|----5---3-5-0--------0---|---5--3--5-8-7-5+5---|---5--3-5-0-------0---| 
B|---------------1-3+3---1-|---------------------|------------1-3+3---1-| 
G|-------------------------|---------------------|----------------------| 
D|-------------------------|---------------------|----------------------| 
A|-------------------------|---------------------|----------------------| 
E|-------------------------|---------------------|----------------------| 
 | 
 | 
 | 
 | 
 | 
 | E  E   E E E  S S S S E   E E  E  E E S S Q     E E  E E E S S S S E 
E|----5---3-5-0--------0---|---5--3--5-8-7-5+5---|---5--3-5-0-------0---| 
B|---------------1-3+3---1-|---------------------|------------1-3+3---1-| 
G|-------------------------|---------------------|----------------------| 
D|-------------------------|---------------------|----------------------| 
A|-------------------------|---------------------|----------------------| 
E|-------------------------|---------------------|----------------------| 
 
 
 
 
 
 
   E  E.  S  E  H              S E SSS E E E Q 
E|-10-10--10-10-9------------|-------------------|---------------------------| 
B|-10-10--10-10-10-----------|-------------------|---------------------------| 
G|-9--9---9--9--9------------|-0-2-2-2-0-2-------|---------------------------| 
D|---------------------------|-0-2-2-2-0-2-------|---------------------------| 
A|---------------------------|---0-0-0---0-------|---------------------------| 
E|---------------------------|-3-------3---------|---------------------------| 
 | 
 | 
 | 
 | 
 | 
 | E  Q.        E  S S S S E   S E SSS E Q   Q 
E|---------------------------|-------------------|---------------------------| 
B|---------------------------|-------------------|---------------------------| 
G|-2--2---------2--2-2+2-2-2-|-0-2-2-2-0-2-------|---------------------------| 
D|-2--2---------2--2-2+2-2-2-|-0-2-2-2-0-2-------|---------------------------| 
A|-0--0---------0--0-0+0-0-0-|---0-0-0---0-------|---------------------------| 
E|---------------------------|-3-------3---------|---------------------------| 
 | 
 | 
 | 
 | 
 | 
 | 
E|---------------------------|-------------------|---------------------------| 
B|---------------------------|-------------------|---------------------------| 
G|---------------------------|-------------------|---------------------------| 
D|---------------------------|-------------------|---------------------------| 
A|---------------------------|-------------------|---------------------------| 
E|---------------------------|-------------------|---------------------------| 
 | 
 | 
 | 
 | 
 | 
 | E  E  E   E  E  S S E   E   H         Q   E E   S E S S E S E S S S S S S 
E|----5--3---5--8--7-5+5---3-|-------------------|-3-3-3+3-3-3-3-0-3-0-3-5-12| 
B|---------------------------|-----------------3-|---------------------------| 
G|---------------------------|-------------------|---------------------------| 
D|---------------------------|-------------------|---------------------------| 
A|---------------------------|-------------------|---------------------------| 
E|---------------------------|-------------------|---------------------------| 
 | 
 | 
 | 
 | 
 | 
 | E  E  E   E  E  S S E   E   H         Q   E E   S E S S E S E S S S S S S 
E|----5--3---5--8--7-5+5---3-|-------------------|-3-3-3+3-3-3-3-0-3-0-3-5-12| 
B|---------------------------|-----------------3-|---------------------------| 
G|---------------------------|-------------------|---------------------------| 
D|---------------------------|-------------------|---------------------------| 
A|---------------------------|-------------------|---------------------------| 
E|---------------------------|-------------------|---------------------------| 
 
 
 
 
 
 
   S E SSS E E E  Q                           S E SSS E E E Q 
E|--------------------|---------------------|--------------------| 
B|--------------------|---------------------|--------------------| 
G|-0-2-2-2-0-2--------|---------------------|-0-2-2-2-0-2--------| 
D|-0-2-2-2-0-2--------|---------------------|-0-2-2-2-0-2--------| 
A|---0-0-0---0--------|---------------------|---0-0-0---0--------| 
E|-3-------3----------|---------------------|-3-------3----------| 
 | 
 | 
 | 
 | 
 | 
 | S E SSS E Q    Q                           S E SSS E Q   Q 
E|--------------------|---------------------|--------------------| 
B|--------------------|---------------------|--------------------| 
G|-0-2-2-2-0-2--------|---------------------|-0-2-2-2-0-2--------| 
D|-0-2-2-2-0-2--------|---------------------|-0-2-2-2-0-2--------| 
A|---0-0-0---0--------|---------------------|---0-0-0---0--------| 
E|-3-------3----------|---------------------|-3-------3----------| 
 | 
 | 
 | 
 | 
 | 
 | 
E|--------------------|---------------------|--------------------| 
B|--------------------|---------------------|--------------------| 
G|--------------------|---------------------|--------------------| 
D|--------------------|---------------------|--------------------| 
A|--------------------|---------------------|--------------------| 
E|--------------------|---------------------|--------------------| 
 | 
 | 
 | 
 | 
 | 
 | H         E S SE E   E E E SS E S S S SE   H         Q   S E. 
E|--------------------|--------0+0----------|--------------------| 
B|----------------1-1-|-1-1-1-1----3-1-3-1--|-----------------1--| 
G|-------------0-2----|-------------------2-|---------------0-0--| 
D|--------------------|---------------------|---------------7----| 
A|--------------------|---------------------|---------------7----| 
E|--------------------|---------------------|--------------------| 
 | 
 | 
 | 
 | 
 | 
 | H         E S SE E   E E E SS E S S S SE   H         Q   S E. 
E|--------------------|--------0+0----------|--------------------| 
B|----------------1-1-|-1-1-1-1----3-1-3-1--|-----------------1--| 
G|-------------0-2----|-------------------2-|---------------0-0--| 
D|--------------------|---------------------|---------------7----| 
A|--------------------|---------------------|---------------7----| 
E|--------------------|---------------------|--------------------| 
 
 
 
 
 
 
                          S E    S S S E   Q     Q 
E|----------------------|-------------------------------| 
B|----------------------|-------------------------------| 
G|----------------------|-0-2----2---2-0---2------------| 
D|----------------------|-0-2----2---2-0---2------------| 
A|----------------------|---0----0---0-----0------------| 
E|----------------------|-3------------3----------------| 
 | 
 | 
 | 
 | 
 | 
 |                        S S  S S S S E   E  E  Q 
E|----------------------|-------------------------------| 
B|----------------------|-------------------------------| 
G|----------------------|-0-2----2---2-0---2------------| 
D|----------------------|-0-2----2---2-0---2------------| 
A|----------------------|---0----0---0-----0------------| 
E|----------------------|-3------------3----------------| 
 | 
 | 
 | 
 | 
 | 
 | 
E|----------------------|-------------------------------| 
B|----------------------|-------------------------------| 
G|----------------------|-------------------------------| 
D|----------------------|-------------------------------| 
A|----------------------|-------------------------------| 
E|----------------------|-------------------------------| 
 | 
 | 
 | 
 | 
 |                        |3-| |3-||3-||3| |3||3||3| |3| 
 | S E S S SE S SE S SE   SS S SS SSS SSSS SSSSSSSSS SSS 
E|----------------------|-0-------0----0-----0---0-----0| 
B|---------------1------|--1----1--1--1-1---1-1-1-1---1-| 
G|-0-0-0+0-0--0-2--2-0--|----2-0----2----2-0---2---2-0--| 
D|----------2---------2-|-------------------------------| 
A|----------------------|-------------------------------| 
E|----------------------|-------------------------------| 
 | 
 | 
 | 
 | 
 |                        |3-| |3-||3-||3| |3||3||3| |3| 
 | S E S S SE S SE S SE   SS S SS SSS SSSS SSSSSSSSS SSS 
E|----------------------|-0-------0----0-----0---0-----0| 
B|---------------1------|--1----1--1--1-1---1-1-1-1---1-| 
G|-0-0-0+0-0--0-2--2-0--|----2-0----2----2-0---2---2-0--| 
D|----------2---------2-|-------------------------------| 
A|----------------------|-------------------------------| 
E|----------------------|-------------------------------| 
 
 
 
 
 
 
                                H           E S S E S S  H       SS S S SE. 
E|----------------------------|------------------------|--------------------| 
B|----------------------------|------------------------|--------------------| 
G|----------------------------|---------------------0-0|--------------------| 
D|----------------------------|---------------2-2------|---------0----------| 
A|----------------------------|---------------0-0---3-3|----------3-2-3-2---| 
E|----------------------------|------------------------|-----------------3--| 
 | 
 | 
 | 
 | 
 | 
 | H             Q      Q       S E S S S E E.  S E.  S  H       SS S S SE. 
E|----------------------------|------------------------|--------------------| 
B|----------------------------|-------------------1---1|-3------------------| 
G|----------------------1-----|-0-2-2---2-0-2---2-0---0|-2------------------| 
D|----------------------1-----|-0-2-2---2-0-2---2------|-0-------0----------| 
A|----------------------------|---0-0---0---0---0-3---3|----------3-2-3-2---| 
E|----------------------------|-3---------3------------|-----------------3--| 
 | 
 | 
 | 
 | 
 | 
 |                              S E S S S E Q     Q      H       SS S S SE. 
E|----------------------------|------------------------|--------------------| 
B|----------------------------|-------------------1----|-3------------------| 
G|----------------------------|-0-2-2+2-2-0-2-----0----|-2------------------| 
D|----------------------------|-0-2-2+2-2-0-2----------|-0-------0----------| 
A|----------------------------|---0-0+0-0---0-----3----|----------3-2-3-2---| 
E|----------------------------|-3---------3------------|-----------------3--| 
 | 
 | 
 | 
 | 
 | |3||3-| |3||3||3||3-||3||3| 
 | SSSSS S SSSSSSSSSS SSSSSSSS 
E|---0------0--0--0-----0--0--|------------------------|--------------------| 
B|--1-1------1---1-1---1--1-1-|------------------------|--------------------| 
G|-2---2-0-2--2-0---0-2--2---2|------------------------|--------------------| 
D|----------------------------|------------------------|--------------------| 
A|----------------------------|------------------------|--------------------| 
E|----------------------------|------------------------|--------------------| 
 | 
 | 
 | 
 | 
 | |3||3-| |3||3||3||3-||3||3| 
 | SSSSS S SSSSSSSSSS SSSSSSSS 
E|---0------0--0--0-----0--0--|------------------------|--------------------| 
B|--1-1------1---1-1---1--1-1-|------------------------|--------------------| 
G|-2---2-0-2--2-0---0-2--2---2|------------------------|--------------------| 
D|----------------------------|------------------------|--------------------| 
A|----------------------------|------------------------|--------------------| 
E|----------------------------|------------------------|--------------------| 
 
 
 
 
 
 
   H           E S S E S S  Q   S S SS H           H           E S S E S S 
E|------------------------|----------------------|------------------------| 
B|------------------------|----------------------|------------------------| 
G|---------------------0-0|----------------------|---------------------0-0| 
D|---------------2-2------|-------0-2------------|---------------2-2------| 
A|---------------0-0---3-3|----------------------|---------------0-0---3-3| 
E|------------------------|----------------------|------------------------| 
 | 
 | 
 | 
 | 
 | 
 | S SSS S S E E.  S SSS S  Q   S S SS E E   SSE   S SSS S S E E.  S SSS S 
E|------------------------|----------------------|------------------------| 
B|-------------------1---1|-3+--3--------1---0---|-------------------1---1| 
G|-0-2-2---2-0-2---2-0---0|-2+--2----0-2------0--|-0-2-2---2-0-2---2-0---0| 
D|-0-2-2---2-0-2---2------|-0+--0-0-2------------|-0-2-2---2-0-2---2------| 
A|---0-0---0---0---0-3---3|----------------------|---0-0---0---0---0-3---3| 
E|-3---------3------------|----------------------|-3---------3------------| 
 | 
 | 
 | 
 | 
 | 
 | S E S S S E Q     Q      Q   S S SS SSS S SSE   S E S S S E Q     Q 
E|------------------------|----------------------|------------------------| 
B|-------------------1----|-3---3--------1-1-0---|-------------------1----| 
G|-0-2-2+2-2-0-2-----0----|-2---2----0-2------0--|-0-2-2+2-2-0-2-----0----| 
D|-0-2-2+2-2-0-2----------|-0---0-0-2------------|-0-2-2+2-2-0-2----------| 
A|---0-0+0-0---0-----3----|----------------------|---0-0+0-0---0-----3----| 
E|-3---------3------------|----------------------|-3---------3------------| 
 | 
 | 
 | 
 | 
 | 
 | 
E|------------------------|----------------------|------------------------| 
B|------------------------|----------------------|------------------------| 
G|------------------------|----------------------|------------------------| 
D|------------------------|----------------------|------------------------| 
A|------------------------|----------------------|------------------------| 
E|------------------------|----------------------|------------------------| 
 | 
 | 
 | 
 | 
 | 
 | 
E|------------------------|----------------------|------------------------| 
B|------------------------|----------------------|------------------------| 
G|------------------------|----------------------|------------------------| 
D|------------------------|----------------------|------------------------| 
A|------------------------|----------------------|------------------------| 
E|------------------------|----------------------|------------------------| 
 
 
 
 
 
 
   H       SS S S SE.   H           E S S E S S 
E|--------------------|------------------------|------------------| 
B|--------------------|------------------------|------------------| 
G|--------------------|---------------------0-0|------------------| 
D|---------0----------|---------------2-2------|------------------| 
A|----------3-2-3-2---|---------------0-0---3-3|------------------| 
E|-----------------3--|------------------------|------------------| 
 | 
 | 
 | 
 | 
 | 
 | H       SS S S SE.   S E S S S E E.  S E.  S  Q   S SSSSSSSSE. 
E|--------------------|------------------------|---------0-1-2-3--| 
B|-3------------------|-------------------1---1|-3---3-4-0-1-2-3--| 
G|-2------------------|-0-2-2---2-0-2---2-0---0|-2---2-3-------0--| 
D|-0-------0----------|-0-2-2---2-0-2---2------|-0---0-1-2-3-4----| 
A|----------3-2-3-2---|---0-0---0---0---0-3---3|------------------| 
E|-----------------3--|-3---------3------------|------------------| 
 | 
 | 
 | 
 | 
 | 
 | H       SS S S SE.   S E S S S E Q     Q      Q   S SSSSSSSSE. 
E|--------------------|------------------------|---------0-1-2-3--| 
B|-3------------------|-------------------1----|-3---3-4-0-1-2-3--| 
G|-2------------------|-0-2-2+2-2-0-2-----0----|-2---2-3-------0--| 
D|-0-------0----------|-0-2-2+2-2-0-2----------|-0---0-1-2-3-4----| 
A|----------3-2-3-2---|---0-0+0-0---0-----3----|------------------| 
E|-----------------3--|-3---------3------------|------------------| 
 | 
 | 
 | 
 | 
 | 
 | 
E|--------------------|------------------------|------------------| 
B|--------------------|------------------------|------------------| 
G|--------------------|------------------------|------------------| 
D|--------------------|------------------------|------------------| 
A|--------------------|------------------------|------------------| 
E|--------------------|------------------------|------------------| 
 | 
 | 
 | 
 | 
 | 
 | 
E|--------------------|------------------------|------------------| 
B|--------------------|------------------------|------------------| 
G|--------------------|------------------------|------------------| 
D|--------------------|------------------------|------------------| 
A|--------------------|------------------------|------------------| 
E|--------------------|------------------------|------------------| 
 
 
 
 
 
 
                     E   Q.    Q      Q       E  E.   S E  H 
E|-----------------|-10--9+----9------------|-8--8----8-8--7--------| 
B|-----------------|-10--10+---10-----------|-8--8----8-8--8--------| 
G|-----------------|-9---9+----9------------|-7--7----7-7--7--------| 
D|-----------------|------------------------|-----------------------| 
A|-----------------|------------------------|-----------------------| 
E|-----------------|------------------------|-----------------------| 
 | 
 | 
 | 
 | 
 | 
 |                   E   Q.    E  S S S S E   E  E.   S E  E  E E E 
E|-----------------|------------------------|-----------------------| 
B|-----------------|------------------------|-----------------------| 
G|-----------------|-2---2-----2--2-2+2-2-2-|-0--0----0-0--0--0-0-0-| 
D|-----------------|-2---2-----2--2-2+2-2-2-|-0--0----0-0--0--0-0-0-| 
A|-----------------|-0---0-----0--0-0+0-0-0-|-----------------------| 
E|-----------------|------------------------|-3--3----3-3--3--3-3-3-| 
 | 
 | 
 | 
 | 
 | 
 |                   W                        S SE  E   E  Q.     E 
E|-----------------|-17+--------------------|-17-12-17--19-21-----17| 
B|-----------------|------------------------|-----------------------| 
G|-----------------|------------------------|-----------------------| 
D|-----------------|------------------------|-----------------------| 
A|-----------------|------------------------|-----------------------| 
E|-----------------|------------------------|-----------------------| 
 | 
 | 
 | 
 | 
 | 
 | 
E|-----------------|------------------------|-----------------------| 
B|-----------------|------------------------|-----------------------| 
G|-----------------|------------------------|-----------------------| 
D|-----------------|------------------------|-----------------------| 
A|-----------------|------------------------|-----------------------| 
E|-----------------|------------------------|-----------------------| 
 | 
 | 
 | 
 | 
 | 
 | 
E|-----------------|------------------------|-----------------------| 
B|-----------------|------------------------|-----------------------| 
G|-----------------|------------------------|-----------------------| 
D|-----------------|------------------------|-----------------------| 
A|-----------------|------------------------|-----------------------| 
E|-----------------|------------------------|-----------------------| 
 
 
 
 
 
 
   E  Q.         Q      Q       E   E.    S E  E.   S SS E 
E|-5--5+---------5------------|-5---5-----5-5--7----7--7-7-| 
B|-8--7+---------7------------|-6---6-----6-6--8----8--8-8-| 
G|-7--7+---------7------------|-5---5-----5-5--7----7--7-7-| 
D|----------------------------|----------------------------| 
A|----------------------------|----------------------------| 
E|----------------------------|----------------------------| 
 | 
 | 
 | 
 | 
 | 
 | E  Q.         E  S S S S E   S E    S E  E  S  E S E  E 
E|----------------------------|----------------------------| 
B|-3--3----------3--3-3+3-3-3-|----------------------------| 
G|-2--2----------2--2-2+2-2-2-|----------------0--0-0-0--0-| 
D|-0--0----------0--0-0+0-0-0-|-3-3----3-3--3--0--0-0-0--0-| 
A|----------------------------|-3-3----3-3--3--------------| 
E|----------------------------|-1-1----1-1--1--3--3-3-3--3-| 
 | 
 | 
 | 
 | 
 |                              |--3--|  |-3-| 
 | Q    S  S  E  Q      Q       E  E  E  E E E Q.        E 
E|-22---20-19-17+17-----3-----|-5--3--0--------------------| 
B|----------------------------|----------4-3-1-3---------0-| 
G|----------------------------|----------------------------| 
D|----------------------------|----------------------------| 
A|----------------------------|----------------------------| 
E|----------------------------|----------------------------| 
 | 
 | 
 | 
 | 
 | 
 | 
E|----------------------------|----------------------------| 
B|----------------------------|----------------------------| 
G|----------------------------|----------------------------| 
D|----------------------------|----------------------------| 
A|----------------------------|----------------------------| 
E|----------------------------|----------------------------| 
 | 
 | 
 | 
 | 
 | 
 | 
E|----------------------------|----------------------------| 
B|----------------------------|----------------------------| 
G|----------------------------|----------------------------| 
D|----------------------------|----------------------------| 
A|----------------------------|----------------------------| 
E|----------------------------|----------------------------| 
 
 
 
 
 
 
   E   Q.            Q         Q        E     E.       S E    H 
E|-10--9+------------9----------------|-8-----8--------8-8----7-------------| 
B|-10--10+-----------10---------------|-8-----8--------8-8----8-------------| 
G|-9---9+------------9----------------|-7-----7--------7-7----7-------------| 
D|------------------------------------|-------------------------------------| 
A|------------------------------------|-------------------------------------| 
E|------------------------------------|-------------------------------------| 
 | 
 | 
 | 
 | 
 | 
 | E   Q.            E    S S  S S E    E     E.       S E    E     E   E E 
E|------------------------------------|-------------------------------------| 
B|------------------------------------|-------------------------------------| 
G|-2---2-------------2----2-2+-2-2-2--|-0-----0--------0-0----0-----0---0-0-| 
D|-2---2-------------2----2-2+-2-2-2--|-0-----0--------0-0----0-----0---0-0-| 
A|-0---0-------------0----0-0+-0-0-0--|-------------------------------------| 
E|------------------------------------|-3-----3--------3-3----3-----3---3-3-| 
 | 
 | 
 | 
 | 
 |     |-3-|                                                  |-3-| |3-| 
 | S S S  SS S S S S S  S S S  S S S S  S  S  S  S  S  S S  S S S S S SSQ 
E|---0-9---0-9-7-9-7-5--9-7-5--3-7-5-3|-15-12-14-10-12-8-10-7-8-7-5-2-0-----| 
B|-4------4---------------------------|--------------------------------3----| 
G|------------------------------------|-------------------------------------| 
D|------------------------------------|-------------------------------------| 
A|------------------------------------|-------------------------------------| 
E|------------------------------------|-------------------------------------| 
 | 
 | 
 | 
 | 
 | 
 | 
E|------------------------------------|-------------------------------------| 
B|------------------------------------|-------------------------------------| 
G|------------------------------------|-------------------------------------| 
D|------------------------------------|-------------------------------------| 
A|------------------------------------|-------------------------------------| 
E|------------------------------------|-------------------------------------| 
 | 
 | 
 | 
 | 
 | 
 | 
E|------------------------------------|-------------------------------------| 
B|------------------------------------|-------------------------------------| 
G|------------------------------------|-------------------------------------| 
D|------------------------------------|-------------------------------------| 
A|------------------------------------|-------------------------------------| 
E|------------------------------------|-------------------------------------| 
 
 
 
 
 
 
   E     Q.                 Q             Q 
E|-5-----5+-----------------5---------------------------| 
B|-8-----7+-----------------7---------------------------| 
G|-7-----7+-----------------7---------------------------| 
D|------------------------------------------------------| 
A|------------------------------------------------------| 
E|------------------------------------------------------| 
 | 
 | 
 | 
 | 
 | 
 | E     Q.                 E      S  S   S    S   E 
E|------------------------------------------------------| 
B|-3-----3------------------3------3--3+--3----3---3----| 
G|-2-----2------------------2------2--2+--2----2---2----| 
D|-0-----0------------------0------0--0+--0----0---0----| 
A|------------------------------------------------------| 
E|------------------------------------------------------| 
 | 
 | 
 | 
 | 
 | |-3-| |-3--| |-3-| |-3-| |-3--| |-3--| |--3--|  |-3-| 
 | S S S S  S S S S S S S S S  S S S S  S S  S  S  S S S 
E|---7-5-4--3-2-8-7-6-5-4-3-10-9-8-7-6--5-12-11-10-9-8-7| 
B|-11---------------------------------------------------| 
G|-15---------------------------------------------------| 
D|------------------------------------------------------| 
A|------------------------------------------------------| 
E|------------------------------------------------------| 
 | 
 | 
 | 
 | 
 | 
 | 
E|------------------------------------------------------| 
B|------------------------------------------------------| 
G|------------------------------------------------------| 
D|------------------------------------------------------| 
A|------------------------------------------------------| 
E|------------------------------------------------------| 
 | 
 | 
 | 
 | 
 | 
 | 
E|------------------------------------------------------| 
B|------------------------------------------------------| 
G|------------------------------------------------------| 
D|------------------------------------------------------| 
A|------------------------------------------------------| 
E|------------------------------------------------------| 
 
 
 
 
 
 
   E  E.      S  E   H              E E E E E Q.      E E E E H 
E|-10-10------10-10--9------------|-----------0-----|-------0+0-------| 
B|-10-10------10-10--10-----------|-------0+0-------|-----0-----------| 
G|-9--9-------9--9---9------------|-----2-----------|-----------------| 
D|--------------------------------|---2-------------|---2-------------| 
A|--------------------------------|-0---------------|-----------------| 
E|--------------------------------|-----------------|-3---------------| 
 | 
 | 
 | 
 | 
 | 
 | E  Q.             E  S S S S E   E E E E E Q.      E E E E H 
E|--------------------------------|-----------0-----|-------0+0-------| 
B|--------------------------------|-------0+0-------|-----0-----------| 
G|-2--2--------------2--2-2+2-2-2-|-----2-----------|-----------------| 
D|-2--2--------------2--2-2+2-2-2-|---2-------------|---2-------------| 
A|-0--0--------------0--0-0+0-0-0-|-0---------------|-----------------| 
E|--------------------------------|-----------------|-3---------------| 
 | 
 | 
 | 
 | 
 | 
 | E  S  S  E    E   H 
E|-12-17-12-21---17+-17-----------|-----------------|-----------------| 
B|--------------------------------|-----------------|-----------------| 
G|--------------------------------|-----------------|-----------------| 
D|--------------------------------|-----------------|-----------------| 
A|--------------------------------|-----------------|-----------------| 
E|--------------------------------|-----------------|-----------------| 
 | 
 | 
 | 
 | 
 | 
 | 
E|--------------------------------|-----------------|-----------------| 
B|--------------------------------|-----------------|-----------------| 
G|--------------------------------|-----------------|-----------------| 
D|--------------------------------|-----------------|-----------------| 
A|--------------------------------|-----------------|-----------------| 
E|--------------------------------|-----------------|-----------------| 
 | 
 | 
 | 
 | 
 | 
 | 
E|--------------------------------|-----------------|-----------------| 
B|--------------------------------|-----------------|-----------------| 
G|--------------------------------|-----------------|-----------------| 
D|--------------------------------|-----------------|-----------------| 
A|--------------------------------|-----------------|-----------------| 
E|--------------------------------|-----------------|-----------------| 
 
 
 
 
 
 
   E E E E E Q.      E E E E E E E E   E E E E E Q.      E E E E H 
E|-----------0-----|-----0-------0---|-----------0-----|-------0+0-------| 
B|-------0+0-------|---------------0-|-------0+0-------|-----0-----------| 
G|-----2-----------|---2---2---0-----|-----2-----------|-----------------| 
D|-0-2-------------|-----------------|---2-------------|---2-------------| 
A|-----------------|-----------------|-0---------------|-----------------| 
E|-----------------|-1-------3-------|-----------------|-3---------------| 
 | 
 | 
 | 
 | 
 | 
 | E E E E E Q.      E E E E E E E E   E E E E E Q.      E E E E H 
E|-----------0-----|-----0-------0---|-----------0-----|-------0+0-------| 
B|-------0+0-------|---------------0-|-------0+0-------|-----0-----------| 
G|-----2-----------|---2---2---0-----|-----2-----------|-----------------| 
D|-0-2-------------|-----------------|---2-------------|---2-------------| 
A|-----------------|-----------------|-0---------------|-----------------| 
E|-----------------|-1-------3-------|-----------------|-3---------------| 
 | 
 | 
 | 
 | 
 | 
 | 
E|-----------------|-----------------|-----------------|-----------------| 
B|-----------------|-----------------|-----------------|-----------------| 
G|-----------------|-----------------|-----------------|-----------------| 
D|-----------------|-----------------|-----------------|-----------------| 
A|-----------------|-----------------|-----------------|-----------------| 
E|-----------------|-----------------|-----------------|-----------------| 
 | 
 | 
 | 
 | 
 | 
 | 
E|-----------------|-----------------|-----------------|-----------------| 
B|-----------------|-----------------|-----------------|-----------------| 
G|-----------------|-----------------|-----------------|-----------------| 
D|-----------------|-----------------|-----------------|-----------------| 
A|-----------------|-----------------|-----------------|-----------------| 
E|-----------------|-----------------|-----------------|-----------------| 
 | 
 | 
 | 
 | 
 | 
 | 
E|-----------------|-----------------|-----------------|-----------------| 
B|-----------------|-----------------|-----------------|-----------------| 
G|-----------------|-----------------|-----------------|-----------------| 
D|-----------------|-----------------|-----------------|-----------------| 
A|-----------------|-----------------|-----------------|-----------------| 
E|-----------------|-----------------|-----------------|-----------------| 
 
 
 
 
 
 
   E E E E E Q.      E E E E E E E E   E E E E E Q.      E E E E H 
E|-----------0-----|-----------0-----|-----------0-----|-------0+0-------| 
B|-------0+0-------|-------0+0---0---|-------0+0-------|-----0-----------| 
G|-----2-----------|-----2---------2-|-----2-----------|-----------------| 
D|-0-2-------------|---2-------------|---2-------------|---2-------------| 
A|-----------------|-0---------------|-0---------------|-----------------| 
E|-----------------|-----------------|-----------------|-3---------------| 
 | 
 | 
 | 
 | 
 | 
 | E E E E E Q.      E E E E E E E E   E E E E E Q.      E E E E H 
E|-----------0-----|-----------0-----|-----------0-----|-------0+0-------| 
B|-------0+0-------|-------0+0---0---|-------0+0-------|-----0-----------| 
G|-----2-----------|-----2---------2-|-----2-----------|-----------------| 
D|-0-2-------------|---2-------------|---2-------------|---2-------------| 
A|-----------------|-0---------------|-0---------------|-----------------| 
E|-----------------|-----------------|-----------------|-3---------------| 
 | 
 | 
 | 
 | 
 | 
 |                                     W                 W 
E|-----------------|-----------------|-----------------|-----------------| 
B|-----------------|-----------------|-----------------|-----------------| 
G|-----------------|-----------------|-2---------------|-0---------------| 
D|-----------------|-----------------|-2---------------|-0---------------| 
A|-----------------|-----------------|-0---------------|-----------------| 
E|-----------------|-----------------|-----------------|-3---------------| 
 | 
 | 
 | 
 | 
 | 
 | 
E|-----------------|-----------------|-----------------|-----------------| 
B|-----------------|-----------------|-----------------|-----------------| 
G|-----------------|-----------------|-----------------|-----------------| 
D|-----------------|-----------------|-----------------|-----------------| 
A|-----------------|-----------------|-----------------|-----------------| 
E|-----------------|-----------------|-----------------|-----------------| 
 | 
 | 
 | 
 | 
 | 
 | 
E|-----------------|-----------------|-----------------|-----------------| 
B|-----------------|-----------------|-----------------|-----------------| 
G|-----------------|-----------------|-----------------|-----------------| 
D|-----------------|-----------------|-----------------|-----------------| 
A|-----------------|-----------------|-----------------|-----------------| 
E|-----------------|-----------------|-----------------|-----------------| 
 
 
 
 
 
 
   E E E E E Q.      E E E E E E E E   E E E E E Q.      E E E E H 
E|-----------0-----|-----0-------0---|-----------0-----|-------0+0-------| 
B|-------0+0-------|---------------0-|-------0+0-------|-----0-----------| 
G|-----2-----------|---2---2---0-----|-----2-----------|-----------------| 
D|-0-2-------------|-----------------|---2-------------|---2-------------| 
A|-----------------|-----------------|-0---------------|-----------------| 
E|-----------------|-1-------3-------|-----------------|-3---------------| 
 | 
 | 
 | 
 | 
 | 
 | E E E E E Q.      E E E E E E E E   E E E E E Q.      E E E E H 
E|-----------0-----|-----0-------0---|-----------0-----|-------0+0-------| 
B|-------0+0-------|---------------0-|-------0+0-------|-----0-----------| 
G|-----2-----------|---2---2---0-----|-----2-----------|-----------------| 
D|-0-2-------------|-----------------|---2-------------|---2-------------| 
A|-----------------|-----------------|-0---------------|-----------------| 
E|-----------------|-1-------3-------|-----------------|-3---------------| 
 | 
 | 
 | 
 | 
 | 
 | W                 H       H         H       H         W 
E|-----------------|-----------------|-----------------|-----------------| 
B|-3---------------|-----------------|-----------------|-----------------| 
G|-2---------------|---------0-------|-2---------------|-0---------------| 
D|-0---------------|-3-------0-------|-2---------------|-0---------------| 
A|-----------------|-3---------------|-0---------------|-----------------| 
E|-----------------|-1-------3-------|-----------------|-3---------------| 
 | 
 | 
 | 
 | 
 | 
 | 
E|-----------------|-----------------|-----------------|-----------------| 
B|-----------------|-----------------|-----------------|-----------------| 
G|-----------------|-----------------|-----------------|-----------------| 
D|-----------------|-----------------|-----------------|-----------------| 
A|-----------------|-----------------|-----------------|-----------------| 
E|-----------------|-----------------|-----------------|-----------------| 
 | 
 | 
 | 
 | 
 | 
 | 
E|-----------------|-----------------|-----------------|-----------------| 
B|-----------------|-----------------|-----------------|-----------------| 
G|-----------------|-----------------|-----------------|-----------------| 
D|-----------------|-----------------|-----------------|-----------------| 
A|-----------------|-----------------|-----------------|-----------------| 
E|-----------------|-----------------|-----------------|-----------------| 
 
 
 
 
 
 
   E E E E E Q.      E E E E E E E E   E  Q.     Q   Q     E E. S E  H 
E|-----------0-----|-----------0-----|-10-9+-----9-------|-8-8--8-8--7-------| 
B|-------0+0-------|-------0+0---0---|-10-10+----10------|-8-8--8-8--8-------| 
G|-----2-----------|-----2---------2-|-9--9+-----9-------|-7-7--7-7--7-------| 
D|-0-2-------------|---2-------------|-------------------|-------------------| 
A|-----------------|-0---------------|-------------------|-------------------| 
E|-----------------|-----------------|-------------------|-------------------| 
 | 
 | 
 | 
 | 
 | 
 | E E E E E Q.      E E E E E E E E   E  E  E E E Q.      E E E  E  H 
E|-----------0-----|-----------0-----|-------------0-----|--------0+-0-------| 
B|-------0+0-------|-------0+0---0---|---------0+0-------|-----0-------------| 
G|-----2-----------|-----2---------2-|-------2-----------|-------------------| 
D|-0-2-------------|---2-------------|----2--------------|---2---------------| 
A|-----------------|-0---------------|-0-----------------|-------------------| 
E|-----------------|-----------------|-------------------|-3-----------------| 
 | 
 | 
 | 
 | 
 | 
 | W                 W                 W                   W 
E|-----------------|-----------------|-------------------|-------------------| 
B|-3---------------|-----------------|-------------------|-------------------| 
G|-2---------------|-2---------------|-2-----------------|-0-----------------| 
D|-0---------------|-2---------------|-2-----------------|-0-----------------| 
A|-----------------|-0---------------|-0-----------------|-------------------| 
E|-----------------|-----------------|-------------------|-3-----------------| 
 | 
 | 
 | 
 | 
 | 
 | 
E|-----------------|-----------------|-------------------|-------------------| 
B|-----------------|-----------------|-------------------|-------------------| 
G|-----------------|-----------------|-------------------|-------------------| 
D|-----------------|-----------------|-------------------|-------------------| 
A|-----------------|-----------------|-------------------|-------------------| 
E|-----------------|-----------------|-------------------|-------------------| 
 | 
 | 
 | 
 | 
 | 
 | 
E|-----------------|-----------------|-------------------|-------------------| 
B|-----------------|-----------------|-------------------|-------------------| 
G|-----------------|-----------------|-------------------|-------------------| 
D|-----------------|-----------------|-------------------|-------------------| 
A|-----------------|-----------------|-------------------|-------------------| 
E|-----------------|-----------------|-------------------|-------------------| 
 
 
 
 
 
 
   E Q.    Q   Q     E E. S E E. SSS E   E  Q.     Q   Q     E E. S E  H 
E|-5-5+----5-------|-5-5--5-5-7--7-7-7-|-10-9+-----9-------|-8-8--8-8--7-------| 
B|-8-7+----7-------|-6-6--6-6-8--8-8-8-|-10-10+----10------|-8-8--8-8--8-------| 
G|-7-7+----7-------|-5-5--5-5-7--7-7-7-|-9--9+-----9-------|-7-7--7-7--7-------| 
D|-----------------|-------------------|-------------------|-------------------| 
A|-----------------|-------------------|-------------------|-------------------| 
E|-----------------|-------------------|-------------------|-------------------| 
 | 
 | 
 | 
 | 
 | 
 | E E E E E Q.      E E E  E E E E  E   E  E  E E E Q.      E E E  E  H 
E|-----------0-----|-----0--------0----|-------------0-----|--------0+-0-------| 
B|-------0+0-------|-----------------0-|---------0+0-------|-----0-------------| 
G|-----2-----------|---2----2---0------|-------2-----------|-------------------| 
D|-0-2-------------|-------------------|----2--------------|---2---------------| 
A|-----------------|-------------------|-0-----------------|-------------------| 
E|-----------------|-1--------3--------|-------------------|-3-----------------| 
 | 
 | 
 | 
 | 
 | 
 | W                 H        H          H         H         W 
E|-----------------|-------------------|-------------------|-------------------| 
B|-3---------------|-------------------|-------------------|-------------------| 
G|-2---------------|----------0--------|-2-----------------|-0-----------------| 
D|-0---------------|-3--------0--------|-2-----------------|-0-----------------| 
A|-----------------|-3-----------------|-0-----------------|-------------------| 
E|-----------------|-1--------3--------|-------------------|-3-----------------| 
 | 
 | 
 | 
 | 
 | 
 | 
E|-----------------|-------------------|-------------------|-------------------| 
B|-----------------|-------------------|-------------------|-------------------| 
G|-----------------|-------------------|-------------------|-------------------| 
D|-----------------|-------------------|-------------------|-------------------| 
A|-----------------|-------------------|-------------------|-------------------| 
E|-----------------|-------------------|-------------------|-------------------| 
 | 
 | 
 | 
 | 
 | 
 | 
E|-----------------|-------------------|-------------------|-------------------| 
B|-----------------|-------------------|-------------------|-------------------| 
G|-----------------|-------------------|-------------------|-------------------| 
D|-----------------|-------------------|-------------------|-------------------| 
A|-----------------|-------------------|-------------------|-------------------| 
E|-----------------|-------------------|-------------------|-------------------| 
 
 
 
 
 
 
   E Q.    Q   Q     E  E. S  E  H         SSSSSSS S S  S SSS SSS 
E|-5-5+----5-------|-10-10-10-10-9-------|-----------------------| 
B|-8-7+----7-------|-10-10-10-10-10------|-----------------------| 
G|-7-7+----7-------|-9--9--9--9--9-------|-----------------------| 
D|-----------------|---------------------|-3-3-3-3---3----3-3--3-| 
A|-----------------|---------------------|-3-3-3-3---3----3-3--3-| 
E|-----------------|---------------------|-1-1-1-1---1----1-1--1-| 
 | 
 | 
 | 
 | 
 | 
 | E E E E E Q.      E  E E   E  E E E E   SSSSSSS S S  S SSQ 
E|-----------0-----|---------------0-----|-----------------------| 
B|-------0+0-------|----------0+-0---0---|-----------------------| 
G|-----2-----------|------2------------2-|-----------------------| 
D|-0-2-------------|----2----------------|-3-3-3-3-3-3--3-3-3----| 
A|-----------------|-0-------------------|-3-3-3-3-3-3--3-3-3----| 
E|-----------------|---------------------|-1-1-1-1-1-1--1-1-1----| 
 | 
 | 
 | 
 | 
 | 
 | W                 W                     Q   Q     Q      Q 
E|-----------------|---------------------|-----5-----8------17---| 
B|-3---------------|---------------------|-----6-----10-----17---| 
G|-2---------------|-2-------------------|-----------------------| 
D|-0---------------|-2-------------------|-----------------------| 
A|-----------------|-0-------------------|-----------------------| 
E|-----------------|---------------------|-----------------------| 
 | 
 | 
 | 
 | 
 | 
 | 
E|-----------------|---------------------|-----------------------| 
B|-----------------|---------------------|-----------------------| 
G|-----------------|---------------------|-----------------------| 
D|-----------------|---------------------|-----------------------| 
A|-----------------|---------------------|-----------------------| 
E|-----------------|---------------------|-----------------------| 
 | 
 | 
 | 
 | 
 | 
 | 
E|-----------------|---------------------|-----------------------| 
B|-----------------|---------------------|-----------------------| 
G|-----------------|---------------------|-----------------------| 
D|-----------------|---------------------|-----------------------| 
A|-----------------|---------------------|-----------------------| 
E|-----------------|---------------------|-----------------------| 
 
 
 
 
 
 
   E  SSSSSSS SSSSSSS  E. S E E E. S SS S S  E. S E E E. S Q 
E|-------------------|---------------------|-------------------| 
B|-------------------|---------------------|-------------------| 
G|-0--0-0-0-0--0-0-0-|----2+2-0------------|----2+2-0----------| 
D|-0--0-0-0-0--0-0-0-|----------4--2+2-----|----------4--2+2---| 
A|-------------------|-0--------------0-3-4|-0-----------------| 
E|-3--3-3-3-3--3-3-3-|---------------------|-------------------| 
 | 
 | 
 | 
 | 
 | 
 | E  SSSSSSS SSSQ     E. S E E E. S SS S S  E. S E E E. S Q 
E|-------------------|---------------------|-------------------| 
B|-------------------|---------------------|-------------------| 
G|-0--0-0-0-0--0-0---|----2+2-0------------|----2+2-0----------| 
D|-0--0-0-0-0--0-0---|----------4--2+2-----|----------4--2+2---| 
A|-------------------|-0--------------0-3-4|-0-----------------| 
E|-3--3-3-3-3--3-3---|---------------------|-------------------| 
 | 
 | 
 | 
 | 
 | 
 | H        Q    Q     W                     W 
E|-15-------12---7---|-9+------------------|-9-----------------| 
B|-15-------12---8---|-10+-----------------|-10----------------| 
G|-------------------|---------------------|-------------------| 
D|-------------------|---------------------|-------------------| 
A|-------------------|---------------------|-------------------| 
E|-------------------|---------------------|-------------------| 
 | 
 | 
 | 
 | 
 | 
 | 
E|-------------------|---------------------|-------------------| 
B|-------------------|---------------------|-------------------| 
G|-------------------|---------------------|-------------------| 
D|-------------------|---------------------|-------------------| 
A|-------------------|---------------------|-------------------| 
E|-------------------|---------------------|-------------------| 
 | 
 | 
 | 
 | 
 | 
 | 
E|-------------------|---------------------|-------------------| 
B|-------------------|---------------------|-------------------| 
G|-------------------|---------------------|-------------------| 
D|-------------------|---------------------|-------------------| 
A|-------------------|---------------------|-------------------| 
E|-------------------|---------------------|-------------------| 
 
 
 
 
 
 
   SSSSSSS S S  S SSS SSS  E  SSSSSSS  S SSS SSS  E  SSSSSSS S SSSSSS 
E|-----------------------|----------------------|--------------------| 
B|-----------------------|----------------------|-3--3-3-3-3---3-3-3-| 
G|-----------------------|-0--0-0-0-0----0-0--0-|-2--2-2-2-2---2-2-2-| 
D|-3-3-3-3---3----3-3--3-|-0--0-0-0-0----0-0--0-|-0--0-0-0-0---0-0-0-| 
A|-3-3-3-3---3----3-3--3-|----------------------|--------------------| 
E|-1-1-1-1---1----1-1--1-|-3--3-3-3-3----3-3--3-|--------------------| 
 | 
 | 
 | 
 | 
 | 
 | SSSSSSS S S  S SSQ      E  SSSSSSS  S SSQ      E  SSSSSSS S SSSSSS 
E|-----------------------|----------------------|--------------------| 
B|-----------------------|----------------------|-3--3-3-3-3-3-3-3-3-| 
G|-----------------------|-0--0-0-0-0--0-0-0----|-2--2-2-2-2-2-2-2-2-| 
D|-3-3-3-3-3-3--3-3-3----|-0--0-0-0-0--0-0-0----|-0--0-0-0-0-0-0-0-0-| 
A|-3-3-3-3-3-3--3-3-3----|----------------------|--------------------| 
E|-1-1-1-1-1-1--1-1-1----|-3--3-3-3-3--3-3-3----|--------------------| 
 | 
 | 
 | 
 | 
 | 
 | Q   Q     Q      Q      H        Q      Q      W 
E|-----5-----8------17---|-15-------22-----19---|-17-----------------| 
B|-----6-----10-----17---|-15-------24-----20---|-19-----------------| 
G|-----------------------|----------------------|--------------------| 
D|-----------------------|----------------------|--------------------| 
A|-----------------------|----------------------|--------------------| 
E|-----------------------|----------------------|--------------------| 
 | 
 | 
 | 
 | 
 | 
 | 
E|-----------------------|----------------------|--------------------| 
B|-----------------------|----------------------|--------------------| 
G|-----------------------|----------------------|--------------------| 
D|-----------------------|----------------------|--------------------| 
A|-----------------------|----------------------|--------------------| 
E|-----------------------|----------------------|--------------------| 
 | 
 | 
 | 
 | 
 | 
 | 
E|-----------------------|----------------------|--------------------| 
B|-----------------------|----------------------|--------------------| 
G|-----------------------|----------------------|--------------------| 
D|-----------------------|----------------------|--------------------| 
A|-----------------------|----------------------|--------------------| 
E|-----------------------|----------------------|--------------------| 
 
 
 
 
 
 
   E  SSSSSSSSSSSSSS 
E|-0--0-0-0-0-0-0-0-|-----------------|-----------------|-----------------| 
B|-0--0-0-0-0-0-0-0-|-----------------|-----------------|-----------------| 
G|------------------|-----------------|-----------------|-----------------| 
D|-2--2-2-2-2-2-2-2-|-----------------|-----------------|-----------------| 
A|------------------|-----------------|-----------------|-----------------| 
E|------------------|-----------------|-----------------|-----------------| 
 | 
 | 
 | 
 | 
 | 
 | E  SSSSSSSSSSSSSS 
E|-0--0-0-0-0-0-0-0-|-----------------|-----------------|-----------------| 
B|-0--0-0-0-0-0-0-0-|-----------------|-----------------|-----------------| 
G|------------------|-----------------|-----------------|-----------------| 
D|-2--2-2-2-2-2-2-2-|-----------------|-----------------|-----------------| 
A|------------------|-----------------|-----------------|-----------------| 
E|------------------|-----------------|-----------------|-----------------| 
 | 
 | 
 | 
 | 
 | 
 | W 
E|-19---------------|-----------------|-----------------|-----------------| 
B|-21---------------|-----------------|-----------------|-----------------| 
G|------------------|-----------------|-----------------|-----------------| 
D|------------------|-----------------|-----------------|-----------------| 
A|------------------|-----------------|-----------------|-----------------| 
E|------------------|-----------------|-----------------|-----------------| 
 | 
 | 
 | 
 | 
 | 
 | 
E|------------------|-----------------|-----------------|-----------------| 
B|------------------|-----------------|-----------------|-----------------| 
G|------------------|-----------------|-----------------|-----------------| 
D|------------------|-----------------|-----------------|-----------------| 
A|------------------|-----------------|-----------------|-----------------| 
E|------------------|-----------------|-----------------|-----------------| 
 | 
 | 
 | 
 | 
 | 
 | 
E|------------------|-----------------|-----------------|-----------------| 
B|------------------|-----------------|-----------------|-----------------| 
G|------------------|-----------------|-----------------|-----------------| 
D|------------------|-----------------|-----------------|-----------------| 
A|------------------|-----------------|-----------------|-----------------| 
E|------------------|-----------------|-----------------|-----------------| 
 
 
 
 
 
 
 
E|-----------------|-----------------|-----------------|-----------------| 
B|-----------------|-----------------|-----------------|-----------------| 
G|-----------------|-----------------|-----------------|-----------------| 
D|-----------------|-----------------|-----------------|-----------------| 
A|-----------------|-----------------|-----------------|-----------------| 
E|-----------------|-----------------|-----------------|-----------------| 
 | 
 | 
 | 
 | 
 | 
 | 
E|-----------------|-----------------|-----------------|-----------------| 
B|-----------------|-----------------|-----------------|-----------------| 
G|-----------------|-----------------|-----------------|-----------------| 
D|-----------------|-----------------|-----------------|-----------------| 
A|-----------------|-----------------|-----------------|-----------------| 
E|-----------------|-----------------|-----------------|-----------------| 
 | 
 | 
 | 
 | 
 | 
 | 
E|-----------------|-----------------|-----------------|-----------------| 
B|-----------------|-----------------|-----------------|-----------------| 
G|-----------------|-----------------|-----------------|-----------------| 
D|-----------------|-----------------|-----------------|-----------------| 
A|-----------------|-----------------|-----------------|-----------------| 
E|-----------------|-----------------|-----------------|-----------------| 
 | 
 | 
 | 
 | 
 | 
 | 
E|-----------------|-----------------|-----------------|-----------------| 
B|-----------------|-----------------|-----------------|-----------------| 
G|-----------------|-----------------|-----------------|-----------------| 
D|-----------------|-----------------|-----------------|-----------------| 
A|-----------------|-----------------|-----------------|-----------------| 
E|-----------------|-----------------|-----------------|-----------------| 
 | 
 | 
 | 
 | 
 | 
 | 
E|-----------------|-----------------|-----------------|-----------------| 
B|-----------------|-----------------|-----------------|-----------------| 
G|-----------------|-----------------|-----------------|-----------------| 
D|-----------------|-----------------|-----------------|-----------------| 
A|-----------------|-----------------|-----------------|-----------------| 
E|-----------------|-----------------|-----------------|-----------------| 
 
 
 
 
 
 
 
E|-----------------|-----------------|-----------------| 
B|-----------------|-----------------|-----------------| 
G|-----------------|-----------------|-----------------| 
D|-----------------|-----------------|-----------------| 
A|-----------------|-----------------|-----------------| 
E|-----------------|-----------------|-----------------| 
 | 
 | 
 | 
 | 
 | 
 | 
E|-----------------|-----------------|-----------------| 
B|-----------------|-----------------|-----------------| 
G|-----------------|-----------------|-----------------| 
D|-----------------|-----------------|-----------------| 
A|-----------------|-----------------|-----------------| 
E|-----------------|-----------------|-----------------| 
 | 
 | 
 | 
 | 
 | 
 | 
E|-----------------|-----------------|-----------------| 
B|-----------------|-----------------|-----------------| 
G|-----------------|-----------------|-----------------| 
D|-----------------|-----------------|-----------------| 
A|-----------------|-----------------|-----------------| 
E|-----------------|-----------------|-----------------| 
 | 
 | 
 | 
 | 
 | 
 | 
E|-----------------|-----------------|-----------------| 
B|-----------------|-----------------|-----------------| 
G|-----------------|-----------------|-----------------| 
D|-----------------|-----------------|-----------------| 
A|-----------------|-----------------|-----------------| 
E|-----------------|-----------------|-----------------| 
 | 
 | 
 | 
 | 
 | 
 | 
E|-----------------|-----------------|-----------------| 
B|-----------------|-----------------|-----------------| 
G|-----------------|-----------------|-----------------| 
D|-----------------|-----------------|-----------------| 
A|-----------------|-----------------|-----------------| 
E|-----------------|-----------------|-----------------| 
 
 
 
 
What do all the symbols mean? 
----------------------------- 
 
W - whole note (semibreve) 
H - half note (minim) 
Q - quarter note (crotchet) 
E - 8th note (quaver) 
S - 16th note (semiquaver) 
T - 32nd note (demisemi quaver) 
X - 64th note (hemidemisemi quaver) 
? - Fret number not defined (note out of range) 
 
If a dot appears after one of the above then it means that the note is 1.5 
times as long, e.g. Q. is 3 8th notes long. Two dots means 1.75 times long. 
 
If a '+' sign appears after a note then that note is tied to (held on to) the 
next note. 
 
 ______ 
|1.    | - play bar/s under this sign first time only in repeats 
 
|2.    | - play bar/s under this sign second time only in repeats 
 
|1.3.  | - play bar/s under this sign first and third time only in repeats 
 
|| 
||* 
||*      - Repeat back to this sign 
|| 
 
 || 
*|| 
*||      - Repeat from this sign 
 || 
 
 
|-3-|    - Triplet 
 
___________________________________________________________ 
Created using G7 - http://www.g7info.com/ 
The fastest, easiest way to create, play and post tab 

	  

Request the video "Naruto Main Theme"  -  Send "Naruto Main Theme" Ringtone to your Cell

there isn't a video lesson for this song

request
Full key step upFull key step up
Half key step upHalf key step up
Half key step downHalf key step down
Full key step downFull key step down
Search
auto scroll beats size up size down change color hide chords simplify chords drawings columns
tab show chords e-chords YouTube Clip e-chords hide all tabs e-chords go to top tab