The Beatles

home > The Beatle... > chords

I Want To Hold Your Hand Chords

The Beatles

Difficulty: ExpertExpert

tuner correct add songbook print version text version rtf version e-mail
chordsukulelecavacokeyboardtabbassdrumsharmonicsflute Guitar Pro
chords

I Want To Hold Your Hand

Year: 2000 - Album: The Beatles 1

(Lennon / Mc Cartney)

	  Intro: 

(Violão Solo) 
          D5               D5 
E|----------------------------------------- 
B|--------3-3-3-3----------3-3-3-3--------- 
G|---0----2-2-2-2-----0----2-2-2-2--------- 
D|-2---0--0-0-0-0---2---0--0-0-0-0--------- 
A|----------------------------------------- 
E|----------------------------------------- 
   C       D5 
E|----------------------------------------- 
B|----------------------------------------- 
G|---0-----2-4-2-2-2-4-2-5-2-4-2-2-2-2-2--- 
D|-2----0--0-0-0-0-0-0-0-0-0-0-0-0-0-0-0--- 
A|----------------------------------------- 
E|----------------------------------------- 

(Violão Base) 
   C    D5           C    D5 
E|----------------------------------------- 
B|----------------------------------------- 
G|-0-0--2--2-2-2-2---0-0--2--2-2-2-2------- 
D|-2-2--0--0-0-0-0---2-2--0--0-0-0-0------- 
A|-3-3---------------3-3------------------- 
E|----------------------------------------- 
   C   D5 
E|----------------------------------------- 
B|--------3--3-3-3-3-3-3-3-3-3-3-3-3-3-3-3- 
G|-0-0----2--2-2-2-2-2-2-2-2-2-2-2-2-2-2-2- 
D|-2-2----0--0-0-0-0-0-0-0-0-0-0-0-0-0-0-0- 
A|-3-3------------------------------------- 
E|----------------------------------------- 

Primeira Parte: 

(Violão Solo) 
E|----------------------------------------- 
B|----12--12-12-----7--7r5~--0------------- 
G|----12--12-12-----7---------------------- 
D|----12--12-12-----7---------------------- 
A|-10-----10-10---5------------------------ 
E|----------------------------------------- 

E|----------------------------------------- 
B|----12--12-12-----7--7r5~--0---0--------- 
G|----12--12-12-----7--------2b4-2b4r2-0--- 
D|----12--12-12-----7---------------------- 
A|-10-----10-10---5------------------------ 
E|----------------------------------------- 

Violão Solo no Final do Refrão 
E|----------------------------------------- 
B|------12--12-12-------------------------- 
G|------12--12-12-------------------------- 
D|------12--12-12-------------------------- 
A|-3/10-----10-10-------------------------- 
E|----------------------------------------- 


    G                  D 
Oh yeah I'll tell you something 
Em                      B7 
  I think you'll understand 
     G           D 
When I say that something 
Em                    B7 
  I wannna hold your hand 

C           D         G     Em 
  I wanna  hold your hand 
C           D         G 
  I wanna  hold your hand 

     G            D 
Oh please say to me 
Em                       B7 
  You'll let me be your man 
      G            D 
And please say to me 
Em                         B7 
  You'll let me hold your hand 

C                D         G    Em 
  You'll let me hold your hand 
C                D         G 
  You'll let me hold your hand 

Segunda Parte: 

(Violão Solo) 
  Dm      G       C       Am 
E|-----1--------3-------0-------0---------- 
B|---3--------3-------1-------1------------ 
G|-2--------4-------0-------2-------------- 
D|--------5-------2-------2---------------- 
A|----------------------------------------- 
E|----------------------------------------- 
  Dm       G        C 
E|-------5-------3--------0---------------- 
B|-----6-------3--------1------------------ 
G|---7-------4--------0-------------------- 
D|-7-------5--------2---------------------- 
A|----------------------------------------- 
E|----------------------------------------- 
          D5               D5 
E|----------------------------------------- 
B|--------3-3-3-3----------3-3-3-3--------- 
G|--------2-2-2-2-----0----2-2-2-2--------- 
D|-----0--0-0-0-0---2---0--0-0-0-0--------- 
A|----------------------------------------- 
E|----------------------------------------- 
   C       D5 
E|----------------------------------------- 
B|----------------------------------------- 
G|---0-----2-4-2-2-2-4-2-5-2-4-2-2-2-2-2--- 
D|-2----0--0-0-0-0-0-0-0-0-0-0-0-0-0-0-0--- 
A|----------------------------------------- 
E|----------------------------------------- 


Dm            G 
  And when I touch you 
        C       Am 
I feel happy inside. 
Dm             G               C 
  It's such a feeling that my love 
C        D    C        D    C        D 
I can't hide, I can't hide, I can't hide! 

Primeira Parte: 
      G            D 
Yeah you got that somethin' 
Em                      B7 
  I think you'll understand 
     G           D 
When I say that something 
Em                   B7 
  I wanna hold your hand 

C            D         G     Em 
  I want to hold your hand 
C            D         G 
  I want to hold your hand 

Segunda Parte: 
Dm          G 
And when I touch you 
       C       Am 
I feel happy inside. 
Dm             G               C 
  It's such a feeling that my love 
C        D    C        D    C        D 
I can't hide, I can't hide, I can't hide! 

Primeira Parte: 
       G            D 
Yeah, you say that something 
Em                      B7 
  I think you'll understand 
     G           D 
When I got that something 
Em                     B7 
  I want to hold your hand 

Refrão Final: 

(Violão Solo) 
E|-----------7----------------------------- 
B|-7----7---------------------------------- 
G|-9b11-9b11----9p7------------------------ 
D|------------------9---------------------- 
A|----------------------------------------- 
E|----------------------------------------- 
                G 
E|--------------3-------------------------- 
B|--------------3-------------------------- 
G|--------------0-------------------------- 
D|---2-0---2-0--0-------------------------- 
A|-3-----3------2-------------------------- 
E|--------------3-------------------------- 


C          D         G      Em 
  I wanna hold your hand 
C          D         B7 
  I wanna hold your hand 
C          D         C     G 
  I wanna hold your hand 

	  

Request the video "I Want To Hold Your Hand"  -  Send "I Want To Hold Your Hand" Ringtone to your Cell

there isn't a video lesson for this song

request
Full key step upFull key step up
Half key step upHalf key step up
Half key step downHalf key step down
Full key step downFull key step down
Search
auto scroll beats size up size down change color hide chords simplify chords drawings columns
tab show chords e-chords YouTube Clip e-chords hide all tabs e-chords go to top tab