Secondhand Serenade

home > Secondhand... > chords

Fall For You (Ver.2) Chords

Secondhand Serenade

Difficulty: EasyEasy

by jOr3m

tuner correct add songbook print version text version rtf version e-mail
chordsukulelecavacokeyboardtabbassdrumsharmonicsflute Guitar Pro
chords

Fall For You (Ver.2)

	  “Aos cuidados de Joao Netto” 

Song: Fall for You 
Artist: Secondhand Serenade 
Tab and Chords by: Jorem(jOr3m_01@yahoo.com) 

(Actually, the tab part of this song is done in keyboard but, 
 I don’t know how to play keyboard so I transpose it to guitar)hehehe... 
just email me or send me a message if there is something  
u want to ask about this tab... GoOd LuCk..^_^ 

Tuning: Standard 

Verse: 1 

     Am        F         C         G  
E|---15--------13--------12--------10--------------| 
B|---13--------13--------13--------12------12-13---| 
G|---------------------------------------12--------| 
D|-------------------------------------------------| 
A|-------------------------------------------------| 
E|-------------------------------------------------| 

     Am        F         C         G              F 
E|---15--------13--------12---13---10-------------13--13--12--12-----| 
B|---13--------13--------13--------12------12-13--13--13--13--13-----| 
G|---------------------------------------12---------12--12--12--12---| 
D|-------------------------------------------------------------------| 
A|-------------------------------------------------------------------| 
E|-------------------------------------------------------------------| 


Chorus: 

   C                  Am                F                 G     
E|-12---12--12--12----12---12--12--12---13---13--13--13---10---10--10—-10--| 
B|-13---13--13--13----13---13--13--13---13---13--13--13---12---10—-10--10--| 
G|-12-12--12--12--12--14-14--14--14--14-14-14--14--14--14-12-12--12--12--12| 
D|-------------------------------------------------------------------------| 
A|-------------------------------------------------------------------------| 
E|-------------------------------------------------------------------------| 

   C                  Am                F                 G      
E|-12---12--12--12----12---12--12--12---13---13--13--13---10---10--10—-10--| 
B|-13---13--13--13----13---13--13--13---13---13--13--13---12---10—-10--10--| 
G|-12-12--12--12--12--14-14--14--14--14-14-14--14--14--14-12-12--12--12--12| 
D|-------------------------------------------------------------------------| 
A|-------------------------------------------------------------------------| 
E|-------------------------------------------------------------------------| 

Am-F-C-G 

E|--15----13-------13-15-12---------12-13-------------12---------| 
B|------13------10----------------13-----15-------------12-------| 
G|------------10--------------------------------12--------13-----| 
D|-----------8-----------------10-------------12-----------------| 
A|---------------------------10-------------10-------------------| 
E|--------------------------8------------------------------------| 


Verse: 2( do the chords in 1st verse) 

This is not what I intended 
I always swore to you I'd never fall apart 
You always thought that I was stronger 
I may have failed, but I have loved you from the start 
Ohh, but hold your breath 

Chorus: 
           C 
Because tonight will be the night 
             Am                  F 
That I will fall for you over again 
                      G 
Don't make me change my mind 
             C 
Or I won't live to see another day 
     Am 
I swear it's true 
                F                           G 
Because a girl like you is impossible to find 
                                    
You're impossible to find 

Bridge: 
     Am     F      C          
So breathe in so deep 
     G     Am       F       C                                 
Breathe me in, I'm yours to keep 
     G             Am            F         C        
And hold on to your words 'cause talk is cheap 
       G            F                                    
And remember me tonight when you're asleep 


Chorus: 

    C              Am         F            G            
E|--------12-------12---------13------13---10----------| 
B|----13--13-------13---------13-----------12----------| 
G|--12-------------14-------14-------------12----------| 
D|-----------------------------------------------------| 
A|-----------------------------------------------------| 
E|-----------------------------------------------------| 

    C              Am                F                G            
E|--------12---12-------12-------------13---13--------10---| 
B|----13--13-13------13-13-13--13------13-13----------12---| 
G|--12-------------14---14---14------14---------------12---| 
D|---------------------------------------------------------| 
A|---------------------------------------------------------| 
E|---------------------------------------------------------| 

   C		 
Tonight will be the night 
             Am                   F 
That I will fall for you over again 
                     G 
Don't make me change my mind 
             C 
Or I won't live to see another day 
     Am 
I swear it's true 
                 F                          G 
Because a girl like you is impossible to find 
                         C 
You're impossible to find 



Fall for you Chords: 

Verse: 

      Am                                         F 
The best thing about tonight's that we're not fighting 
          C                               G 
Could it be that we have been this way before? 
          Am                     F 
I know you don't think that I am trying 
         C                             G 
I know you're wearing thin down to the core 
    F 
But hold your breath 

Chorus: 
           C 
Because tonight will be the night 
             Am                  F 
That I will fall for you over again 
                      G 
Don't make me change my mind 
             C 
Or I won't live to see another day 
     Am 
I swear it's true 
                F                           G 
Because a girl like you is impossible to find 
                         Am-F-C-G            
You're impossible to find 

Verse: 2( do the chords in 1st verse) 

This is not what I intended 
I always swore to you I'd never fall apart 
You always thought that I was stronger 
I may have failed, but I have loved you from the start 
Ohh, but hold your breath 

Chorus: 
           C 
Because tonight will be the night 
             Am                  F 
That I will fall for you over again 
                      G 
Don't make me change my mind 
             C 
Or I won't live to see another day 
     Am 
I swear it's true 
                F                           G 
Because a girl like you is impossible to find 
                                    
You're impossible to find 

Bridge: 
     Am     F      C          
So breathe in so deep 
     G     Am       F       C                                 
Breathe me in, I'm yours to keep 
     G             Am            F         C        
And hold on to your words 'cause talk is cheap 
       G            F                                    
And remember me tonight when you're asleep 

Chorus: 
           C 
Because tonight will be the night 
             Am                  F 
That I will fall for you over again 
                      G 
Don't make me change my mind 
             C 
Or I won't live to see another day 
     Am 
I swear it's true 
                F                           G 
Because a girl like you is impossible to find 
                                     
You're impossible to find 
   C		 
Tonight will be the night 
             Am                 F 
That I will fall for you over again 
                      G 
Don't make me change my mind 
            C 
Or I won't live to see another day 
    Am 
I swear it's true 
               F                             G 
Because a girl like you is impossible to find 
                        C 
You're impossible to find 
	  

Request the video "Fall For You (Ver.2)"  -  Send "Fall For You (Ver.2)" Ringtone to your Cell

there isn't a video lesson for this song

request
Full key step upFull key step up
Half key step upHalf key step up
Half key step downHalf key step down
Full key step downFull key step down
e-chords
Search
auto scroll beats size up size down change color hide chords simplify chords drawings columns
tab show chords e-chords YouTube Clip e-chords hide all tabs e-chords go to top tab