Metallica

home > Metallica

The Unforgiven Chords

Metallica

Difficulty: ExpertExpert

by _beneh_

tuner correct add songbook print version text version rtf version e-mail
chordsukulelecavacokeyboardtabbassdrummharmonicsflute Guitar Pro
chords

The Unforgiven

	   Afinação: Standard 

Introdução: 
Riff 1 
e||------------------------------------------|| 
B||-0--------0-------0-------0-------1-------|| 
G||----2-------2-------2-------2-------2-----|| Repetir Dedilhado de Acordo com a música 
D||------2-------2-------2-------2-------2---|| 
A||-0----------------------------------------|| 
E||------------------------------------------|| 

Riff 2 

e|------------------------------------------|------------------------------------------| 
B|------------------------------------------|------------------------------------------| 
G|-------------------2--4--4h5---5--4--2----|--------------2--4--4h5----------5--2-----| 2x 
D|------------------------------------------|------------------------------------------| 
A|------------------------------------------|------------------------------------------| 
E|------------------------------------------|------------------------------------------| 

e|------------------------------------------|------------------------------------------| 
B|------------------------------------------|------------------------------------------| 
G|-2--4--4h5--4h5--5-5-4--------------------|---4/2---2--2/4--2------------------------|  
D|-----------------------5------------------|-------2----------------------------------| 
A|------------------------------------------|------------------------------------------| 
E|------------------------------------------|------------------------------------------| 

e|------------------------------------------|------------------------------------------| 
B|------------5-5-3-------------------------|------------------------------------------| 
G|-2--4--4h5--------4-----------------------|-4/1-1-1/4--0-2-4-2-----------------------|  
D|------------------------------------------|------------------------------------------| 
A|------------------------------------------|------------------------------------------| 
E|------------------------------------------|------------------------------------------| 

Repetir Riff 1 


Primeiro Verso: 

Am                   Em         D               Am 
New blood joins this earth and quickly he's sub-dued 
        Am                Em         D                     Am 
Through constant pain disgrace, the young boy learns their rules 
     Am                   Em      D                 Am 
With time the child draws in this whipping boy done wrong 
  Am                Em            D                   Am 
Deprived of all his thoughts, the young man struggles on and on 
   Am       C            G         D              Am 
He known, a vow unto his own that never from this day 
    C           G         E 
His will they'll take away 

tabchorus
Am C G Em Am What I've felt, what I've known never shined through in what I've shown C G E Am Never be, Never see, won't see what might have been C G Em Am What I've felt, what I've known,never shined through in what I've shown C G E Am Never free, never me, so I dub the unforgiven
tab
Segundo Verso: Am Em D Am They dedicate their lives to running all of his Am Em D Am He tries to please them all, this bitter man he is Am Em D Am Throughout the life the same, he's battled constantly Am Em D Am Am This fight he cannot win, a tired man they see no longer cares C G Am Am The old man then prepares to die regretfully C G E That old man here is me_____
tabchorus
Am C G Em Am What I've felt, what I've known never shined through in what I've shown C G E Am Never be, Never see, won't see what might have been C G Em Am What I've felt, what I've known,never shined through in what I've shown C G E Am Never free, never me, so I dub the unforgiven
tab
Final: C G E Am C G E Am Never free, never me, so I dub the unforgiven______ C G E Am C G E Am You labelled me, I labelled you, so I dub the unforgiven_____ C G E Am C G E Am Never free, never me, so I dub the unforgiven______ C G E Am C G E Am You labelled me, I labelled you, so I dub the unforgiven_____

Request the video "The Unforgiven"  -  Send "The Unforgiven" Ringtone to your Cell

there isn't a video lesson for this song

request
Full key step upFull key step up
Half key step upHalf key step up
Half key step downHalf key step down
Full key step downFull key step down
Search
auto scroll beats size up size down change color hide chords simplify chords drawings columns
tab show chords e-chords YouTube Clip e-chords hide all tabs e-chords go to top tab