Luan Santana

home > Luan Santa... > chords

Adrenalina Chords

Luan Santana

Difficulty: BeginnerBeginner

by gustsilva

tuner correct add songbook print version text version rtf version e-mail
chordsukulelecavacokeyboardtabbassdrumsharmonicsflute Guitar Pro
chords

Adrenalina

Year: 2011 - Album: Luan Santana - Ao Vivo no Rio

	  Adrenalina ( Luan Santana )  

  A                   E                       F#m                   
Meu coração tá disparado, meu corpo tá viciado,   
       D                                 A   
nessa louca adrenalina que me faz arrepiar, meu sangue   
          E                          F#m  D         A   A   A  D9   
ferve nas veias quando você me incendeia vem me amar.              

    (SOLO)  A  E  D  D  

A         E              D                                                  
Eu sou vidrado em você química perfeita não consigo  entender, 
A           E             D  
 é impossível de dizer não você criou as   
                                   Bm   
regras e estou nas palmas das suas mãos.  
                      D      A                     E  
To me arriscando pelo seu amor, me aventurei pra ficar   
            Bm      D           A          E   
perto do seu calor, inconsequente nossa paixão a cada dia uma nova emoção.   

A                   E                      F#m                    
Meu coração tá disparado, meu corpo tá viciado,   
       D                               A   
nessa louca adrenalina que me faz arrepiar, meu sangue   
          E                         F#m   D        
ferve nas veias quando você me incendeia vem me amar.          
A                  E                      F#m                   
Meu coração tá disparado, meu corpo tá viciado,  
        D                             A   
 nessa louca adrenalina que me faz arrepiar, meu sangue   
            E                  F#m       D          A   A   A  D9   
ferve nas veias quando você me incendeia vem me amar.                       

  (SOLO)  A  E  D  D  
               
A                  E         D                                                 
Eu sou vidrado em você química perfeita não consigo  entender,  
A            E             D   
é impossível de dizer não você criou as   
                                     Bm  
regras e estou nas palmas das suas mãos.  
                               D         A           E   
To me arriscando pelo seu amor, me aventurei pra ficar   
                      Bm                              D                       A                     
perto do seu calor, inconsequente nossa paixão a cada dia uma nova emoção.   

A                  E                       F#m                   
Meu coração tá disparado, meu corpo tá viciado,  
        D                               A   
 nessa louca adrenalina que me faz arrepiar, meu sangue   
          E                   F#m        D             A  
ferve nas veias quando você me incendeia vem me amar.        

m                   D              A         
Quando você chegar mais perto vai ver  
                    E                    Bm           D   
que a pulsação acelera quando to com você, essa magia chega e domina   
 A                     E   
o meu peito explode é pura adrenalina. 
  
 A                   E                      F#m                    
Meu coração tá disparado, meu corpo tá viciado,   
       D                               A   
nessa louca adrenalina que me faz arrepiar, meu sangue   
          E                         F#m   D        
ferve nas veias quando você me incendeia vem me amar.          
A                  E                      F#m                   
Meu coração tá disparado, meu corpo tá viciado,  
        D                             A   
 nessa louca adrenalina que me faz arrepiar, meu sangue   
   E                           F#m       D          A   A   A  D9   
ferve nas veias quando você me incendeia vem me amar.              





REFRÃO 

-------------------------7-----7-----7-----9-----9-----9----- 
----10-----10-----10-------5-----5-----------7-----7--------- 
-------9------9--------4-----4-----4-----6-----6-----6------- 
--7------7------7-------------------------------------------- 
------------------------------------------------------------- 
------------------------------------------------------------- 




------------------------------------------------------------- 
----10-----10-----10----------------------------------------- 
-------9------9---------------------------------------------- 
--7------7------7-------------------------------------------- 
------------------------------------------------------------- 
------------------------------------------------------------- 


CONTINUAÇÃO 



------------------------------------------------------------- 
----10-----10-----10---10---10---10---10---10---10---10---10- 
-------9------9------9----9----9----9----9----9----9----9---- 
--7------7------7-------------------------------------------- 
------------------------------------------------------------- 
------------------------------------------------------------- 




--------------------5---5--5--5--5--5--5--5------------------  
----10---10---10----5---5--5--5--5--5--5--5------------------ 
--9----9----9----9--7---7--7--7--7--7--7--7------------------ 
--------------------7---7--7--7--7--7--7--7------------------ 
--------------------5---5--5--5--5--5--5--5------------------ 
------------------------------------------------------------- 


SOLO 


----------9/5--5~--------7/4--4~-------5/2--2~--------------- 
------------------------------------------------------------- 
-------9--------------9-------------7------------------------ 
------------------------------------------------------------- 
------------------------------------------------------------- 
------------------------------------------------------------- 



RIFF 1º VERSO 



------------------------------------------------------------- 
-----------------3-X-3--3-X-3---------------------3-X-3------ 
-----------------2-X-2--2-X-2---------------------2-X-2------ 
-2-X-2-----------0-X-0--0-X-0----2-X-2------------0-X-0------ 
-0-X-0----2-X-2------------------0-X-0----2-X-2-------------- 
----------0-X-0---------------------------0-X-0-------------- 



FRASES MELODICAS 


1º 


--9--7--5---------------------------------------------------- 
----------7--5----------------------5\7--5~------------------ 
----------------7--6--4~---------6--------------------------- 
------------------------------------------------------------- 
------------------------------------------------------------- 
------------------------------------------------------------- 


2º 


----5------5------------------------------------------------- 
------3------3--2----------7p5-----5------------------------- 
--4------2---------4~-----------6-----6----4h6---2----------- 
------------------------------------------------------------- 
------------------------------------------------------------- 
------------------------------------------------------------- 


3º 

---------------------------------------------5-----5--------- 
-------------------------5---------------------3-----3--2---- 
--6--6--4--2-----2--4\6-----6/4--2-----2--4~-----2---------4- 
--------------4---------------------4------------------------ 
------------------------------------------------------------- 
------------------------------------------------------------- 



final do refrão 



------------------------------------10--9--7~---------------- 
----10-----10-----10---10-----10----------------------------- 
-------9------9-----------9---------------------------------- 
--7------7------7----7------7----7--------------------------- 
------------------------------------------------------------- 
------------------------------------------------------------- 


continuação 



5-5-5-5--7-7-7-7--9-9-9-9--5-5-5-5-5-5-5-5--7-7-7-7--9-9-9-9- 
5-5-5-5--5-5-5-5--7-7-7-7--5-5-5-5-5-5-5-5--5-5-5-5--7-7-7-7- 
------------------------------------------------------------- 
------------------------------------------------------------- 
------------------------------------------------------------- 
------------------------------------------------------------- 


final 


-------------------------------------9/5--5~--7/4--4~-5/2--2- 
---10-----10-----10---10-----10------------------------------ 
------9------9-----------9---------9--------9--------6------- 
-7------7------7----7------7----7---------------------------- 
------------------------------------------------------------- 
------------------------------------------------------------- 





	  

Request the video "Adrenalina"  -  Send "Adrenalina" Ringtone to your Cell

there isn't a video lesson for this song

request
Full key step upFull key step up
Half key step upHalf key step up
Half key step downHalf key step down
Full key step downFull key step down
Search
auto scroll beats size up size down change color hide chords simplify chords drawings columns
tab show chords e-chords YouTube Clip e-chords hide all tabs e-chords go to top tab