Detonautas

home > Detonautas > chords

Olhos Certos Chords

Detonautas

Difficulty: BeginnerBeginner

by Gutinho

tuner correct add songbook print version text version rtf version e-mail
chordsukulelecavacokeyboardtabbassdrummharmonicsflute Guitar Pro
chords

Olhos Certos

	    C#m           A7M  C#m            A7M  C#m           A7M       A7M       A7M 
E |--4-5-5/7-5-4--------4-5-5/7-5-4---------4-5-5/7-5-4----------------------------| 
B |-5------------5-----5------------5------5-----------5-----5----5/7-5-----5/7-5--| 
G |--------------------------------------------------------------------------------| 
D |--------------------------------------------------------------------------------| 
A |--------------------------------------------------------------------------------| 
E |--------------------------------------------------------------------------------| 


Assim que termina a introdução, a próxima parte é feita no baixo. 

    
   Tento te encontrar 

E |--------------------------------| 
B |--------------------------------| 
G |--------------------------------| 
D |--------------------------------| 
A |-------4h6-4--------------------| 
E |-0--0h5------7-5--0h5-5h7-5-4-0-| 



   Tanto pra dizer 

E |-----------------------------| 
B |-----------------------------| 
G |-----------------------------| 
D |-----------------------------| 
A |----4h6-4--------------------| 
E |-0h5------7-5--0h4-4h5-5-4-0-| 



   Meu amor, tudo bem 

E |-----------------------------| 
B |-----------------------------| 
G |-----------------------------| 
D |-----------------------------| 
A |----4h6-4--------------------| 
E |-0h5------7-5--0h5-5h7-5-4-0-| 




E |----------------------------| 
B |----------------------------| 
G |----------------------------| 
D |----------------------------| 
A |----4h6-4-------------------| 
E |-0h5------7-5--0h5-5h7-5-4--| 


C#m           A7M 
Sorte de nós dois 
      C#m           F#7 
Quero te fazer feliz 
C#m     A7M             C#m   A7M 
Meu amor,   sempre quis 

(refrão) 
      C#m                        A7M 
      Seus olhos certos mas não sei o que dizer 
      F#7                A7M 
       Eu não vou mas o tempo vem 
      C#m                     A7M 
      Ta tudo certo mais não sei o que dizer 
      F#7                A7M              (C#m  A7M) 
       Eu não vou mas o tempo vem aqui. 

C#m             A7M 
Tento te encontrar 
C#m          F#7 
tanto pra dizer 
C#m       A7M     C#m   A7M 
Meu amor, tudo bem 

C#m            A7M 
Mesmo sem te ver 
C#m             F#7 
Não chegou ao fim 
C#m      A7M        C#m    A7M 
Seu amor,  tudo em mim. 

E         B    C#m        A7M 
  Se não for mais do que tento ser 
E         B    A 
  Se não for mais 

E         B    C#m        A7M 
  Se não for mais do que tento ser 
E         B    A 
  Se não for 

C#m         B 
La ra ra ra 
         A7M 
Nun na raaaa 
                   C#m 
Re re re re re re re 
        B 
Re re re 
      A7M 
Re re 

C#m         B 
La ra ra ra     A7M 
La ra ra ra   ra raaaa 
                   C#m 
Re re re re re re re 
        B 
Re re re 
    A7M 
Re re 

(refrão) 
      C#m                        A7M 
      Seus olhos certos mas não sei o que dizer 
      F#7                A7M 
       Eu não vou mas o tempo vem 
      C#m                     A7M 
      Ta tudo certo mais não sei o que dizer 
      F#7                A7M              (C#m  A7M) 
       Eu não vou mas o tempo vem aqui. 

   C#m   B  C#m  A7M 
E |------------------| 
B |-5-----4--5-------| {4 vezes} 
G |---------------6--| 
D |------------------| 
A |------------------| 
E |------------------| 

	  

Request the video "Olhos Certos"  -  Send "Olhos Certos" Ringtone to your Cell

there isn't a video lesson for this song

request
Full key step upFull key step up
Half key step upHalf key step up
Half key step downHalf key step down
Full key step downFull key step down
Search
auto scroll beats size up size down change color hide chords simplify chords drawings columns
tab show chords e-chords YouTube Clip e-chords hide all tabs e-chords go to top tab