The All American Rejects

home > The All Am... > chords

Drive Away (ver. 2) Bass Tab

The All American Rejects

Difficulty: nolevelnolevel

tuner correct add songbook print version text version rtf version e-mail
chordsukulelecavacokeyboardtabbassdrumsharmonicsflute Guitar Pro
chords

Drive Away (ver. 2)

	  intro/verses
 G|--------------------|
 D|--------------------|
 A|---66-44-44/2nd time ----66-44-4-4-4------|
 E|-44----------/-----------------44--------------------|
  play 2x

 G|--------------------|
 D|--------------------|
 A|---66-44-44--play 2x/--4444444-6-6-----|
 E|-44-----------------|


 chorus
 G|--------------------|
 D|--------------------|
 A|-------4444-66664666----|
 E|-4444---------------|

 G|-------------------|
 D|-------------------|
 A|-----44446-64-----|
 E|-4444--------------|

 G|-------------------|
 D|-------------------|
 A|---44446--46--44--6--|
 E|-44----------------|


 G|-------------------|
 D|-------------------|
 A|-----44--66-4—6--|
 E|-8888--------------|
	  

Request the video "Drive Away (ver. 2)"  -  Send "Drive Away (ver. 2)" Ringtone to your Cell

there isn't a video lesson for this song

request
Search
auto scroll beats size up size down change color hide chords drawings
tab show chords e-chords YouTube Clip e-chords hide all tabs e-chords go to top tab