Red Hot Chili Peppers

home > Red Hot Ch... > chords

Under the Bridge (ver. 2) Bass Tab

Red Hot Chili Peppers

Difficulty: AdvancedAdvanced

by Magayevski

tuner correct add songbook print version text version rtf version e-mail
chordsukulelecavacokeyboardtabbassdrumsharmonicsflute Guitar Pro
chords

Under the Bridge (ver. 2)

	  INTRO: 
G|------------| 
D|------------| 
A|------------| 
E|-0-0-0-0-0~-| 
 
Refrão: 
G|--------------------------------------------------------------------| 
D|--------9-------9----------------------9-------9--------------------| 
A|-9--7-7---7-------7-9-9-9-9-----9--7-7---7-------7-9-9-9h11p9h11p9--| 
E|------------9-7----------------------------9-7----------------------| 
 
G|--------------------------------------------------------------------| 
D|--------9-------9----------------------9-------9--------------------| 
A|-9--7-7---7-------7-9-9-9-9-----9--7-7---7-------7-9-9~-------------| 
E|------------9-7----------------------------9-7----------------------| 
 
VERSO: 
G|-------------------------------| 
D|-------------------------------| 
A|----2~------------2~--4--------|	4 vezes 
E|-0------4-5----0--------5-5~---| 
 
G|--9~~-| 
D|------| 
A|------| 
E|------| 
 
Refrão: 
G|--------------------------------------------------------------------| 
D|--------9-------9---------------------------9-------9---------------| 
A|-9--7-7---7-------7-9-9-9h11p9-7-9---9--7-7---7-------7-9-9\2-------| 
E|------------9-7---------------------------------9-7-----------2-2---| 
 
G|--------------------------------------------------------------------| 
D|--------9-------9----------------------9-------9--------------------| 
A|-9--7-7---7-------7-9-9-9-9-----9--7-7---7-------7-9-9~-------------| 
E|------------9-7----------------------------9-7----------------------| 
 
FINAL: 
G|---9---5-----5---7-------5-----------9----9----9---7---------5------| 
D|-----7---7-5---5---5-3-5---5-3-------------------5---5-3-3-5---5-3-5| 
A|--------------------------------------------------------------------| 
E|-5--------------------------------5----5----5-----------------------| 
 
G|---9---5-----5---7-------5------------------------------------------| 
D|-----7---7-5---5---5-3-5---5-3--------------------------------------| 
A|--------------------------------------------------------------------| 
E|-5--------------------------------1-1-1-1-1-1-1-1-0-0-0-0-3-3-3-3---| 
 
G|---9---5-----5---7-------5-----------9----9----9---7---------5------| 
D|-----7---7-5---5---5-3-5---5-3-------------------5---5-3-3-5---5-3-5| 
A|--------------------------------------------------------------------|	4 vezes 
E|-5--------------------------------5----5----5-----------------------| 
 
G|---9---5-----5---7-------5------------9----9----9---7---------------| 
D|-----7---7-5---5---5-3-5---5-3--------------------5---5-3~~---------| 
A|--------------------------------------------------------------------| 
E|-5---------------------------------5----5----5------------------5~~-| 
 
 

	  

Request the video "Under the Bridge (ver. 2)"  -  Send "Under the Bridge (ver. 2)" Ringtone to your Cell

there isn't a video lesson for this song

request
e-chords
Search
auto scroll beats size up size down change color hide chords drawings
tab show chords e-chords YouTube Clip e-chords hide all tabs e-chords go to top tab