Pearl Jam

home > Pearl Jam > chords

Animal Bass Tab

Pearl Jam

Difficulty: nolevelnolevel

by Apocalyptica

tuner correct add songbook print version text version rtf version e-mail
chordsukulelecavacokeyboardtabbassdrummharmonicsflute Guitar Pro
chords

Animal

Year: 1993 - Album: Rearviewmirror: Greatest Hits 1991-2003

(Dave Abbruzzese/Jeff Ament/Stone Gossard/Mike McCready/Eddie Vedder)

	  Transcribed by: Renato Bortolatto 
Email: belbor@bol.com.br 
 
		Only avaliable at www.giventowail.com  
 
I´ve tried to write the timming along.For all that matters I belive the time 
signature is 6/4 and the key is G.  
 
Intro: 
------------------------------------------------------------------------------ 
--------------------5h7------------------------------------------------------- 
------0-0-00-00-5h7----------------------------------------------------------- 
------------------------------------------------------------------------------                                                                         
 
Verses: 
------------------------------------------------------------------------------ 
------------------------5h7----------------5h7-------------------------------- 
----------0-0-00-00-5h7------0-0-00-00-5h7------------------------------------ 
-55\-55\----------------------------------------------------------------------   
Repeat this part once, them just the first four notes.                                                                      
 
Chorus: 
------------------------------------------------------------------------------ 
---------------------------5h7------------------------------------------------ 
------0-00-0-00-3-33-3-5h7-----5-55-5-5\-------------------------------------- 
------------------------------------------3-3-2------------------------------- 
The number of notes played here change throught. 
 
------------------------------------------------------------------------------ 
------------------------------------------------------------------------------ 
-------0/-12vvvvvvvvv-----0/-12vvvvvvvvvv------------------------------------- 
------------------------------------------------------------------------------ 
 End: One,two,tree  .... One,two,tree                                          
 
 
 

	  

Request the video "Animal"  -  Send "Animal" Ringtone to your Cell

there isn't a video lesson for this song

request
Search
auto scroll beats size up size down change color hide chords drawings
tab show chords e-chords YouTube Clip e-chords hide all tabs e-chords go to top tab