Pearl Jam

home > Pearl Jam > chords

All Those Yesterdays Bass Tab

Pearl Jam

Difficulty: BeginnerBeginner

by Apocalyptica

tuner correct add songbook print version text version rtf version e-mail
chordsukulelecavacokeyboardtabbassdrumsharmonicsflute Guitar Pro
chords

All Those Yesterdays

Year: 1998 - Album: Live: 07-11-03 Mansfield, MA

	  Transcribed by: Shaun Boer 
Email: shaun@stiance.zzn.com 
 
This song has an awesome bassline... 
 
-|--------------------------------|-------------------------|----------------- 
-|----------------------7--8--10--|-------------------------|----------------- 
-|---8--8--8-h-10-p-8-------------|---8--8--8-h-10-p-8------|----------------- 
-|--------------------------------|---------------------8---|----------------- 
  Verse(s) - Keep repeating.                                                   
 
-|----------------------------------------------|--------------------------|-- 
-|-----------------------------------7--8--10---|--------------------------|-- 
-|---5-5-5---7-7-7---8-8-8-h-10-p-8-------------|---8--8--8-h-10-p-8-------|-- 
-|----------------------------------------------|----------------------8---|-- 
  "Let it wash away..."                                                        
 
-|-------------------------------|-------------------------------------------- 
-|-------------------------------|-------------------------------------------- 
-|---5--5--5--7--7--7---8---\\---|-------------------------------------------- 
-|-------------------------------|-------------------------------------------- 
                        Hold this F then slide down                            
 
-|---------------------------------------------------------|------------------ 
-|---------------------------------------------------------|------------------ 
-|------------------5---5---8---5--\-----------------------|------------------ 
-|--1---1---3---1----------------------4---4---6---4---1---|------------------ 
  Chorus. Repeat until end and fade-out.                                       
	  

Request the video "All Those Yesterdays"  -  Send "All Those Yesterdays" Ringtone to your Cell

there isn't a video lesson for this song

request
e-chords
Search
auto scroll beats size up size down change color hide chords drawings
tab show chords e-chords YouTube Clip e-chords hide all tabs e-chords go to top tab