Godsmack

home > Godsmack > chords

Voodoo Bass Tab

Godsmack

Difficulty: BeginnerBeginner

tuner correct add songbook print version text version rtf version e-mail
chordsukulelecavacokeyboardtabbassdrumsharmonicsflute Guitar Pro
chords

Voodoo

	  


Verse:
G|------------------------|
D|----------3-4-3---------|
A|----------------4-3-4-3-|
E|-1-x-1-1----------------|

Prechorus:
G|------------|
D|------------|
A|------------|
E|-0-000000---|

Chorus: (listen carfully)
G|-----------------------|
D|-----------1-----------|
A|---1---1-3---3-3-1h3-3-|
E|-1---1-----------------|

G|-----------------------|
D|-----------------------|
A|----1--1h3-------------|
E|-1---1-----444-3-4-3-1-|

G|-----------------------|
D|-----------1-----------|
A|---1---1-3---3-3-1h3-3-|
E|-1---1-----------------|

G|-----------------|
D|-----------------|
A|---1---1h3-------|
E|-1---1-----0-1-1-|

	  

Request the video "Voodoo"  -  Send "Voodoo" Ringtone to your Cell

there isn't a video lesson for this song

request
e-chords
Search
auto scroll beats size up size down change color hide chords drawings
tab show chords e-chords YouTube Clip e-chords hide all tabs e-chords go to top tab