Disturbed

home > Disturbed > chords

Numb Bass Tab

Disturbed

Difficulty: nolevelnolevel

tuner correct add songbook print version text version rtf version e-mail
chordsukulelecavacokeyboardtabbassdrummharmonicsflute Guitar Pro
chords

Numb

Year: 2000 - Album: The Sickness

	  

Band: 
 
CD: The Sickness
Tabbed by: BlindedRhythm
E-mail: MndlessGuitarist@hotmail.com

Tuning: Drop D Flat (Db Ab Db Gb)

Intro/Verse
|-------------7-|
|-------------7-|
|-------------5-|
|-0h3-3-3-3\5---|x16

Pre-Chorus
|---------|
|---------|
|---------|
|-5br-3-0-|

|------------------------|
|------------------------|
|------------------------|
|-6-0--0-0-3---0-5br-3-0-|x3

|----------------------|
|----------------------|
|----------------------|
|-6-0--0-0-3---0-----3-|

Chorus
|---------------------------------|
|---------------------------------|
|-2---2-----2---2-3---3-----5---5-|
|---2---2-2---2-----2---2-2---2---|x3

|---------------------------|
|---------------------------|
|-2---2-----2---2-3---3-----|
|---2---2-2---2-----2---2\/-|

Play verse again 8 times
Play pre-chorus and chorus the same.

Bridge
|---------------------------------------8-|
|---------------------------------------8-|
|------0h1-0----------------0h1-0---3---6-|
|-0--0---------3--x-1--0--0---------------|x2

Play play chorus rill two times.
Repeat bridge once.

|-------------------------------------------------|
|-------------------------------------------------|
|-2---2---2---2-3---3-----2---2---2---2-3---3-----|
|---2-------2-----2---------2-------2-----2-----3-|

|------------------------------------------------------|
|------------------------------------------------------|
|-2---2---2---2-3---3-----2---2---2---2-3---3----------|
|---2-------2-----2---------2-------2-----2----5br-3-0-|

Last Pre-Chorus
|------------------------|
|------------------------|
|------------------------|
|-6-0--0-0-3---0-5br-3-0-|x3

|---------------------------------|
|---------------------------------|
|---------------------------------|
|-3br-0-3br-0-3br-0-3br-0-5br-3-0-|

|------------------------|
|------------------------|
|------------------------|
|-6-0--0-0-3---0-5br-3-0-|x3

Outro
|---------------------------------|
|-3-2-0-3-2-0-3-2-0-3-2-0-3-2-3-2-|
|---------------------------------|
|---------------------------------|x4

|---------------------------------|
|---------------------------------|
|---------------------------------|
|-5-3-0-5-3-0-5-3-0-5-3-0-5-3-5-3-|x4

|---|
|---|
|---|
|-0-|

	  

Request the video "Numb"  -  Send "Numb" Ringtone to your Cell

there isn't a video lesson for this song

request
Search
auto scroll beats size up size down change color hide chords drawings
tab show chords e-chords YouTube Clip e-chords hide all tabs e-chords go to top tab