Creedence Clearwater Revival

home > Creedence ... > chords

Down On The Corner Bass Tab

Creedence Clearwater Revival

Difficulty: BeginnerBeginner

tuner correct add songbook print version text version rtf version e-mail
chordsukulelecavacokeyboardtabbassdrumsharmonicsflute Guitar Pro
chords

Down On The Corner

	  
 
Album:
 
Tabbed by: Jeremy Scofield (voxshot@hotmail.com)

Riff 1/Intro
G----------------------
D----------------------
A-3-0---3-3-0-----0-3-3
E-----3-------3-3------

Riff 2
G----------------------
D-3-0---3-3-0-----2-5-5
A-----3-------3-3------
E----------------------

Riff 3
G-------------------------------
D-3-3-3--------2-5-------------2
A--------3-3-3---------3-3-3-3--
E------------------3-3----------

Riff 4/Outro
G-----------------------------------
D-----------------------------------
A-3-3-3-3-3--3-3-33-----------3-3-33
E-------------------3-3-3-3-3-------

	  

Request the video "Down On The Corner"  -  Send "Down On The Corner" Ringtone to your Cell

there isn't a video lesson for this song

request
e-chords
Search
auto scroll beats size up size down change color hide chords drawings
tab show chords e-chords YouTube Clip e-chords hide all tabs e-chords go to top tab