Aerosmith

home > Aerosmith > chords

Jaded Bass Tab

Aerosmith

Difficulty: IntermediateIntermediate

tuner correct add songbook print version text version rtf version e-mail
chordsukulelecavacokeyboardtabbassdrummharmonicsflute Guitar Pro
chords

Jaded

	  Verse 
G------------------------------------------------------
D---7--6-7----7--6-7-6------4--------7--6-7------------
A-0---------0------------------------------------------
E------------------------------------------------------

G--------------------7--6-7-----------------------------
D-------------------------------------7--6-7----7--6-7-6
A-------------5---------------------0---------0---------
E-------------------------------------------------------

G-------------------------------------------------7--6-7---
D---4------------7--6-7----------------5-------------------
A----------------------------------------------------------
E----------------------------------------------------------

Pre-Chorus
G-----4-------------7-------------------4------------------
D----------------------------------------------------------
A--2--------------5-------------------2----(5)(choke note)
E----------------------------------------------------------

CHORUS
G----------------------------------------------------------
D----------------------4-4-4-4-4-4-4-4-4-4-4-4-4-----------
A-0-0-0-0------4-4-2-4---------------------------0-0-0-----
E---------2-2-2----------------------------------------2-2-


G----------------------------------------------------------
D------------2-2-2-2-2-------------------------------------
A----4-4-2-4-----------5-5-5-5-(2)(choke note)-------------
E-2-2------------------------------------------------------

Bass Fill #1
G---------------------------------
D--------7---------7--------------
A-0--7\\\\--0--7\\\\--------------
E---------------------------------

Verse 2
Pre-Chorus
CHORUS
Bass Fill #1

<>

G--------------------------------------------------------
D--------------------------------------------------------
A-------------------------5-5-5-5------------------------
E-0-0-0-0-0-0-0-0-0-0-0------------0-0-0-0-0-0-0-0-0-0-0-

G---------------------------------------
D---------------------------------------
A----2-2-2------------------5-5-5-5-5-5-
E-0-0-------0-0-0-0-0-0-0---------------

G----------------------------------------------3--2-3-2---
D---------------------------------------------------------
A-5-5-5--3-3-3-3-3-3-3-3---2-2-2-2--1-1-1-1-1-----------0-
E---------------------------------------------------------

Intro lick (only x1)

Verse 3 (only ½ as long)

Pre chorus (ends on "A" choked note)

CHORUS

(end) 
G-----------------------------------------------------
D-2-2-2-2-2-2-----------------------------------------
A----------------5-5-5---------5-5-5-5----------------
E----------------------2-2-2-2---------2-2-2-2-2-2-2-2

G-------------------------------------------------------
D-------------------------------------------------------
A---------------5-5-5-5---------------------------------
E-2-2-2-2-2-2-2---------(2)(choke note)-----------------
	  

Request the video "Jaded"  -  Send "Jaded" Ringtone to your Cell

there isn't a video lesson for this song

request
Search
auto scroll beats size up size down change color hide chords drawings
tab show chords e-chords YouTube Clip e-chords hide all tabs e-chords go to top tab